Oops, an error
Loading. Please wait.

Gangster Of Love Bass Tab

5,345 views 1 this week
no commentswrite comment
1 2 3 4 5
please rate
add to favorites
launch autoscroll
font size
0
reset
guitar tuner
Autoscroll
slow
fast
+/-
esc
set tempo
stop
Help us to improve Ultimate-Guitar.com Take our survey!
×
Author
Difficulty
novice
-------------------------------------------------------------------------------
			     Gangster of Love - Steve Miller Band
-------------------------------------------------------------------------------

Tabbed By : Corey


Tuning:EADG

G|---------------------------------------|------------------------|
D|---------------------------------------|------------------------|
A|--5--5-5--5-5--5-5--5-5--5-5--5-x---3--|----3-5----3-5----3-5---|
E|----------------------------------5----|--5------5------5-------|

G|---------------------------------------|--------------|
D|---------------------------------------|--------------|
A|--5--5-5--5-5--5-5--5-5--5-5--5-x---3--|----3-5----5--|
E|----------------------------------5----|--5-----------|

G|---------------------------------------|--------------------|
D|---------------------------------------|----7-5------5-3----|
A|--5--5-5--5-5--5-5--5-5--5-5--5-x---3--|--------5--------5--|
E|----------------------------------5----|--5--------3--------|

E|----------------------|
D|----------------------|
A|----3-5----3-5----3-5-|
E|--5------5------5-----|

G|---------------------------------------|--------------|
D|---------------------------------------|--------------|
A|--5--5-5--5-5--5-5--5-5--5-5--5-x---3--|----3-5----5--|
E|----------------------------------5----|--5-----------|

G|---------------------------------------|
D|---------------------------------------|
A|--5--5-5--5-5--5-5--5-5--5-5--5-x---3--|
E|----------------------------------5----|
      
        **All the measures that repeat the 5's you play 3 times
          The rest of them you only play once
        
        **When it goes into the part on the right, you usually 
          don't play the last few notes of the measure before it. 
        
        **You might play the A's open; I think it sounds better to 
          play them on the E string.
           

| x : i put the x's down so you know to pause for a brief second. 

============================================================================
Suggest correction
Give kudos to tab author, rate the tab!
1 2 3 4 5
comments
print report bad tab
guest
You may want to rate the tab now too:
select rating
Please do not post tabs as comments. Select "correction" instead!