Oops, an error
Loading. Please wait.

Jet Airliner Bass

version 1
version 1

Whole song

Interactive

20,352 views 36 this week
1 commentread comment
1 2 3 4 5
x 8
add to favorites
launch autoscroll
font size
0
reset
guitar tuner
×
Best way to learn
"Jet Airliner"
Autoscroll
slow
fast
+/-
esc
set tempo
stop
STEVE MILLER BAND - "Jet Airliner" - Bass Tab
Common Time(4/4)
Standard Tuning(EADG)

 [Intro]
                   (x3)
G|---|-----------------|------/3h5p3-|
D|---|*---------------*|-------------|
A|-1-|*-3-r---------1-*|-3-----------|
E|---|----------0-1----|-------------|
  &    1 2 3 & a 4 &    1 2 3 & 4 &

[Verse 1]
G|-----------------|-----------------|-----------------|
D|-----------------|-----------------|-----------------|
A|-3-3-r-3-3-3-r-3-|---------3-3-r-3-|-----------------|
E|-----------------|-1-1-r-1---------|-1-1-r-1-r-1-r-1-|
  1 & 2 & 3 & 4 &   1 & 2 & 3 & 4 &   1 & 2 & 3 & 4 &  

G|-------------------|-----------------|-----------------|
D|-------------------|-----------------|-----------------|
A|-3-3-r-1-3-3-3-1---|-3-3-r-3-r-3-r-3-|-3-3-r-3-r-3-r-3-|
E|-----------------3-|-----------------|-----------------|
  1 & 2 & 3 e & 4 &   1 & 2 & 3 & 4 &   1 & 2 & 3 & 4 &

G|-----------------|---------------------|-------------------|
D|-----------------|---------------------|-------------------|
A|-----------------|-3-3-r-1-3-3-1-----1-|-3-3-r-3-3-3-3---1-|
E|-1-1-r-1-r-1-r-1-|---------------3-3---|---------------3---|
  1 & 2 & 3 & 4 &   1 & 2 & 3 e & 4 e &   1 & 2 & 3 e & 4 &

G|-----------------|-----------------|-------------------|
D|-----------------|-----------------|-------------------|
A|-3-3-r-3-r-3-r-3-|-1-1-r-1---------|-3-3-r-1-3-3-3-1---|
E|-----------------|---------1-1-r-1-|-----------------3-|
  1 & 2 & 3 & 4 &   1 & 2 & 3 & 4 &   1 & 2 & 3 e & 4 &

G|-----------------|-----------------|-----------------|
D|-----------------|-----------------|-----------------|
A|-3-3-r-3-r-3-r-1-|-3-3-r-3-r-3-r-3-|-1-1-r-1---------|
E|-----------------|-----------------|---------1-1-r-1-|
  1 & 2 & 3 & 4 &   1 & 2 & 3 & 4 &   1 & 2 & 3 & 4 &

G|---------1/3h5p3---|
D|-----------------5-|
A|-3-3-r-1-----------|
E|-------------------|
  1 & 2 & a 3 & 4 &
 
[Chorus 1]
G|-----------------|-----------------|-----------------|
D|-------1-3-3-----|-.-.-.-.-.-.-----|-------1-3-3-----|
A|-1-1-3---------1-|-3-3-1-1-0-0-.-.-|-1-1-3---------1-|
E|-------------3---|-------------3-3-|-------------3---|
  1 & 2 & 3 & 4 &   1 & 2 & 3 & 4 &   1 & 2 & 3 & 4 &

G|---------3h5p3h--|-----------------|-----------------|
D|---------------5-|-------1-3-3-----|-.-.-.-.-.-.-----|
A|-3-3-3-3---------|-1-1-3---------1-|-3-3-1-1-0-0-.-.-|
E|-----------------|-------------3---|-------------3-3-|
  1 & 2 & 3 & 4 &   1 & 2 & 3 & 4 &   1 & 2 & 3 & 4 &

G|-----------------|-----------------|---------------------|
D|-------1-3-3-----|-----------------|---------3-3-3-3-4-5-|
A|-1-1-3---------1-|-3-3-3-3-3-3-3-3-|-3-3-3-3-------------|
E|-------------3---|-----------------|---------------------|
  1 & 2 & 3 & 4 &   1 & 2 & 3 & 4 &   1 & 2 & 3 e & a 4 &

[Verse 2]
G|-----------------|-----------------|-------------------|
D|-----------------|-----------------|-------------------|
A|-3-3-r-3-r-3-r-3-|---------3-3-r-3-|-------------------|
E|-----------------|-1-1-r-1---------|-1-1-r-1-r-1-1-r-1-|
  1 & 2 & 3 & 4 &   1 & 2 & 3 & 4 &   1 & 2 & a 3 & 4 &

G|-------------------|-----------------|-------------------|
D|-------------------|-----------------|-------------------|
A|-3-3-r-1-3-3-3---1-|-3-3-r-3-r-3-1---|-3-3-r-3-3-3-3-5-6-|
E|---------------3---|---------------3-|-------------------|
  1 & 2 & 3 e & 4 &   1 & 2 & 3 & 4 &   1 & 2 & 3 e & 4 &

G|-----------------|-------------------|-------------------|
D|-3-3-r-3-r-------|-------------------|-------------------|
A|---------------1-|-3-3-r-1-3-3-3-1---|-3-3-r-1-3-3-3-1---|
E|-----------1-3---|-----------------1-|-----------------3-|
  1 & 2 & 3 & 4 &   1 & 2 & 3 e & 4 &   1 & 2 & 3 e & 4 &

G|-------------------|-----------------|-------------------|
D|-------------------|-----------------|-------------------|
A|-3-3-r-.-3-3-1-----|-1-1-r-1---------|-3-3-r-1-3-3-1---1-|
E|-------3-------3-1-|---------1-1-r-1-|---------------1---|
  1 & 2 & 3 e & 4 &   1 & 2 & 3 & 4 &   1 & 2 & 3 e & 4 &

G|-----------------|-----------------|-----------------|
D|-----------------|-----------------|-----------------|
A|-3-3-r-3-r-3-r-1-|-3-3-r-3-r-3-r-3-|-1-1-r-1---------|
E|-----------------|-----------------|---------1-1-r-1-|
  1 & 2 & 3 & 4 &   1 & 2 & 3 & 4 &   1 & 2 & 3 & 4 &

G|-------------3-5-|
D|---------3h5-----|
A|-3-3-3-3---------|
E|-----------------|
  1 & 2 & 3 & 4 &  

[Chorus 2]
G|-----------------|-----------------|-----------------|
D|-------1-3-3-----|-.-.-.-.-.-.-----|-------1-3-3-----|
A|-1-1-3---------1-|-3-3-1-1-0-0-.-.-|-1-1-3---------1-|
E|-------------3---|-------------3-3-|-------------3---|
  1 & 2 & 3 & 4 &   1 & 2 & 3 & 4 &   1 & 2 & 3 & 4 &

G|---5---5---------|-----------------|-----------------|
D|---------------1-|-------1-3-3-----|-.-.-.-.-.-.-----|
A|-3---3---3-3-5---|-1-1-3---------1-|-3-3-1-1-0-0-.-.-|
E|-----------------|-------------3---|-------------3-3-|
  1 & 2 & 3 & 4 &   1 & 2 & 3 & 4 &   1 & 2 & 3 & 4 &

G|-----------------|-----------------|---------------|
D|-------1-3-3-----|-----------------|-------------3-|
A|-1-1-3---------1-|-3-r-----------1-|-3-r-3-5-5-6---|
E|-------------3---|-----------1-3---|---------------|
  1 & 2 & 3 & 4 &   1 & 2 3 & a 4 &   1 & 2 3 & 4 &

[Verse 3]
G|-----------------|---------------|-------------|-----------------|
D|-----------------|---------------|-------------|-----------------|
A|-3-3-r-3-3-3-r-3-|-------3-3-3-3-|-------------|-3-r-1-3-3-3-1---|
E|-----------------|-1-r-1---------|-1-r-1-x-r-1-|---------------3-|  
  1 & 2 & 3 & 4 &   1 2 & 3 & 4 &   1 2 & 3 4 &   1 2 & 3 e & 4 &

G|-----------------|-----------------|-----------------|
D|-----------------|-----------------|-3---------------|
A|-3-3-r-3-r-3-r-1-|-3-3-r-3-r-3-5-6-|-----------------|
E|-----------------|-----------------|---1-r-1-r-1-r-1-|
  1 & 2 & 3 & 4 &   1 & 2 & 3 & 4 &   1 & 2 & 3 & 4 &

G|-------------------|-------------------|---------------|
D|-------------------|-------------------|---------------|
A|-3-3-r-1-3-3-3-1---|-3-3-r-1-3-3-3-1---|-3-r-3-r-3-r-3-|
E|-----------------3-|-----------------3-|---------------|
  1 & 2 & 3 e & 4 &   1 & 2 & 3 e & 4 &   1 2 & 3 & 4 &

G|-----------------|-------------------|-------------------|
D|-----------------|-------------------|-------------------|
A|-1-1-r-1---------|-3-3-r-1-3-3-1---1-|-3-3-r-1-3-3-3-1---|
E|---------1-1-r-1-|---------------1---|-----------------3-|
  1 & 2 & 3 & 4 &   1 & 2 7 3 e & 4 &   1 & 2 & 3 e & 4 &

G|-------------------|-----------------|-----3-5-3/5-3-----|(???)
D|-------------------|-----------------|---------------5-3-|
A|-3-3-r-1-3-3-3-1---|-1-1-r-1---------|-3-r---------------|
E|-----------------3-|---------1-1-r-1-|-------------------|
  1 & 2 & 3 e & 4 &   1 & 2 & 3 & 4 &   1 & 2 & a 3 & 4 &

[Chorus 3]
G|-----------------|---------------|-----------------|
D|-------1-3-3-----|---.-.-.-.-----|-------1-3-3-----|
A|-1-1-3---------1-|-3-1-1-0-0-.-.-|-1-1-3---------1-|
E|-------------3---|-----------3-3-|-------------3---|
  1 & 2 & 3 & 4 &   1 2 & 3 & 4 &   1 & 2 & 3 & 4 &

G|---3-------------|-----------------|---------------|
D|-----------------|-------1-3-3-----|-.-.---.-.-----|
A|-1---3-3-5-5-6-6-|-1-1-3---------1-|-3-3-1-0-0-.-.-|
E|-----------------|-------------3---|-----------3-3-|
  1 & 2 & 3 & 4 &   1 & 2 & 3 & 4 &   1 & 2 3 & 4 &

G|---------------|-----------------|-----------------|
D|-----1-3-3-----|-.-.-.-.-.-.-----|-------1-3-3-----|
A|-1-3---------1-|-3-3-1-1-0-0-.-.-|-1-1-3---------1-|
E|-----------3---|-------------3-3-|-------------3---|
  1 2 & 3 & 4 &   1 & 2 & 3 & 4 &   1 & 2 & 3 & 4

G|---------1/3h5-3---|-----------------|---------------|
D|-------3---------5-|-------1-3-3-----|-.-.---.-.-----|
A|-1-1-3-------------|-1-1-3---------1-|-3-3-1-0-0-.-.-|
E|-------------------|-------------3---|-----------3-3-|
  1 & 2 & a 3 & 4 &   1 & 2 & 3 & 4 &   1 & 2 3 & 4 &

G|-----------------|-------3-1/3-5-3---|---------------|
D|-------1-3-3-----|-----3-----------5-|-----1-3-3-----|
A|-1-1-3---------1-|-1-1---------------|-1-3---------1-|
E|-------------3---|-------------------|-----------3---|
  1 & 2 & 3 & 4 &   1 & 2 & a 3 & 4 &   1 2 & 3 & 4 &

G|-----------------|-------------------|
D|-----------------|-----------------3-| 
A|-3-3-3-3-3-3-3-3-|-3-3-----0-3-5-6---|
E|-----------------|-----1-r-----------|
  1 & 2 & 3 & 4 &   1 & 2 & a 3 & 4 &  
Suggest correction
comments
print report bad tab
1 comment total.
0 reply
nickw624 52 Jun 17, 2016 10:26 PM

Spot on! Thanks for the tab!

guest
You may want to rate the tab now too:
select rating
Wanna post a correction for this tab? Suggest correction