Oops, an error
Loading. Please wait.

Jet Airliner Tab

version 2
version 2

Interactive

8,722 views 9 this week
no commentswrite comment
1 2 3 4 5
please rate
add to favorites
launch autoscroll
font size
0
reset
how to read this tab
guitar tuner
Tab Pro tools
  • play this tab
  • loop segment
  • change instrument
  • show fretboard
  • metronome
×
Best way to learn
"Jet Airliner"
Autoscroll
slow
fast
+/-
esc
set tempo
stop
Jet Airliner  by: Steve Miller Band     from "Book of Dreams" (1978)

  Intro 1: 4x

E|--3/-----------8----8-----------------|
B|-----------------11---8b-----6p4------|
G|---------------------------------5----| << this is the lick
D|--------------------------------------|
A|--------------------------------------|
E|--------------------------------------|


  Intro 2:

    C                    F         C          F                    C
E|--------------------------------------------------------------------------|
B|-----------------------1-1-3-1--------------1-1-3-1---1-1-3-1-------------|
G|--0-0-2-0---0-0-2-0--------------0-0-2-0-------------------------0-0-2-0--|
D|-----------------------3-3-3-3--------------3-3-3-3---3-3-3-3-------------|
A|--3-3-3-3---3-3-3-3--------------3-3-3-3-------------------------3-3-3-3--|
E|--------------------------------------------------------------------------|
                                   F                    C
 |--------------------------------------------------------------------------|
 |---------------------------------1-1-3-1---1-1-3-1------------------------|
 |-0-0-2-0----0-0-2-0---0-0-2-0-------------------------0-0-2-0---0-0-2-0---|
 |---------------------------------3-3-3-3---3-3-3-3------------------------|
 |-3-3-3-3----3-3-3-3---3-3-3-3-------------------------3-3-3-3---3-3-3-3---|
 |--------------------------------------------------------------------------|
                                            Bb                    C
 |-------------------------------------------------------------------------|
 |-------------------------------------------------------------------------|
 |-0-0-2-0---0-0-2-0----0-0-2-0---0-0-2-0-------------------------0-0-2-0--|
 |-------------------------------------------0-0-3-0---0-0-3-0-------------|
 |-3-3-3-3---3-3-3-3----3-3-3-3---3-3-3-3----1-1-1-1---1-1-1-1----3-3-3-3--|
 |-------------------------------------------------------------------------|
                                                       Bb
 |--------------------------------------------------------------------------|
 |--------------------------------------------------------------------------|
 |-0-0-2-0----0-0-2-0---0-0-2-0----0-0-2-0---0-0-2-0------------------------|
 |------------------------------------------------------0-0-3-0---0-0-3-0---|
 |-3-3-3-3----3-3-3-3---3-3-3-3----3-3-3-3---3-3-3-3----1-1-1-1---1-1-1-1---|
 |--------------------------------------------------------------------------|
   C                   Bb                    C                   Bb
 |-------------------------------------------------------------------------|
 |-------------------------------------------------------------------------|
 |-0-0-2-0---0-0-2-0-------------------------0-0-2-0---0-0-2-0-------------|
 |----------------------0-0-3-0---0-0-3-0-------------------------0-0-3-0--|
 |-3-3-3-3---3-3-3-3----1-1-1-1---1-1-1-1----3-3-3-3---3-3-3-3----1-1-1-1--|
 |-------------------------------------------------------------------------|
              C                   Bb                    C
 |--------------------------------------------------------------------------|
 |--------------------------------------------------------------------------|
 |------------0-0-2-0---0-0-2-0-------------------------0-0-2-0---0-0-2-0---|
 |-0-0-3-0-------------------------0-0-3-0---0-0-3-0------------------------|
 |-1-1-1-1----3-3-3-3---3-3-3-3----1-1-1-1---1-1-1-1----3-3-3-3---3-3-3-3---|
 |--------------------------------------------------------------------------|
  Bb                    C                   Bb                    C
 |-------------------------------------------------------------------------|
 |-------------------------------------------------------------------------|
 |----------------------0-0-2-0---0-0-2-0-------------------------0-0-2-0--|
 |-0-0-3-0---0-0-3-1-------------------------0-0-3-0---0-0-3-1-------------|
 |-1-1-1-1---1-1-1-1----3-3-3-3---3-3-3-3----1-1-1-1---1-1-1-1----3-3-3-3--|
 |-------------------------------------------------------------------------|

 |------------|
 |------------|
 |-0-0-2-0----|
 |------------|
 |-3-3-3-3----|
 |------------|


 E|--3/-----------8----8-----------------|
 B|-----------------11---8b-----6p4------|
 G|---------------------------------5----|  << 4x
 D|--------------------------------------|
 A|--------------------------------------|
 E|--------------------------------------|

        Intro end.


   Verse/Chorus:

 Repeat the C,F,Bb over and over all the way through

 Also, after every chorus, play the lick


  Hope this helps...Steve Miller Band is underrated and underestimated...hope this song 
your attention


B-man Blanket
comments
We did not receive enough feedback on this tab! Please rate:
print report bad tab
1 2 3 4 5
I want to post or [tab]
guest
You may want to rate the tab now too:
select rating
Please do not post tabs as comments. Select "correction" instead!