Oops, an error
Loading. Please wait.

Jungle Love Bass Tab

version 1
version 1

Whole song

Interactive

10,574 views 12 this week
3 commentsread comments
1 2 3 4 5
x 6
add to favorites
launch autoscroll
font size
0
reset
guitar tuner
Autoscroll
slow
fast
+/-
esc
set tempo
stop
Help us to improve Ultimate-Guitar.com Take our survey!
×
Song: Jungle Love
Artist: Steve Miller Band
Album: Book of Dreams
Bassist: Lonnie Turner
Tabbed by: Ben Garskof

Bass Tablature - Standard Tuning

INTRO
G---------------(5)-|
D-----------0-------|
A-----0-1-3---1-----|
E-1-3---------------|

FIRST VERSE
  F        G        Bb        F
G--------|--------|---------|-----------------|
D--------|--------|---------|------1-1-2-3-SD-|
A--------|--------|-1-1-----|-----------------|
E-1------|-3------|---------|-1---------------|

  F        G        Bb        F
G--------|--------|---------|-------------------|
D--------|--------|---------|----------15-15-SU-|
A--------|--------|-1-1-----|-------15----------|
E-1------|-3------|---------|-1-1---------------|

  F        G        Bb        F
G--------|--------|---------|-----------------|
D--------|--------|---------|------1-1-2-3-SD-|
A--------|--------|-1-1-----|-----------------|
E-1------|-3------|---------|-1---------------|

  F        G        Bb        F
G--------|--------|---------|--------|
D--------|--------|---------|--------|
A--------|--------|-1-1-----|--------|
E-1------|-3------|---------|-1------|

CHORUS
  G             Bb              F               Bb
G-------------|---------------|---------------|-3---------------|
D-------------|---------------|-3-3-5-5-7-5-3-|-----------------|
A-------------|-----3-3-5-5-7-|---------------|---1-3-3-4-4-5-5-|
E-3-3-3-3-3-5-|-6-6-----------|---------------|-----------------|

  G             Bb              F                G
G-------------|---------------|---------------|-----------------|
D-------------|---------------|---------------|-(3)-------------|
A-------------|---------------|---------------|-----------------|
E-3-3-3-3-3-5-|-6-6-6-6-6-5-3-|-1-1-1-1-5-3-1-|-----------------|

SECOND VERSE
  F        G        Bb        F
G--------|--------|---------|----1-2-1------|
D--------|--------|---------|----------3-2--|
A--------|--------|-1-1-----|---------------|
E-1------|-3------|---------|-1-------------|

  F        G        Bb        F
G--------|--------|---------|-------------1---|
D--------|--------|---------|-----1---3-------|
A--------|--------|-1-1-----|---3---3---3---3-|
E-1------|-3------|---------|-1---------------|

  F        G        Bb        F
G--------|--------|---------|----------------|
D--------|--------|---------|--------1-1-1-3-|
A--------|--------|-1-1-----|----------------|
E-1------|-3------|---------|-1--------------|

 F        G        Bb         F
G--------|--------|---------|---------|
D--------|--------|---------|---------|
A--------|--------|-1-1-----|---------|
E-1------|-3------|---------|-1-------|

CHORUS
  G             Bb              F               Bb
G-------------|---------------|---------------|-3---------------|
D-------------|---------------|-3-3-5-5-7-5-3-|-----------------|
A-------------|-----3-3-5-5-7-|---------------|---1-3-3-4-4-5-5-|
E-3-3-3-3-3-5-|-6-6-----------|---------------|-----------------|

  G             Bb              F                G
G-------------|---------------|---------------|-----------------|
D-------------|---------------|-3-3-5-5-7-5-3-|-----------------|
A-------------|-----3-3-5-5-7-|---------------|-----------------|
E-3-3-3-3-3-5-|-6-6-----------|---------------|-(3)-------------|

   F
G|------------8-----9-9-|
D|---3--3---------------| [X3]
A|--------6-6---7-7-----|
E|-1--1-----------------|

  F
G-----------------|-----------------|-----------------|---|
D-----------------|-----------------|-----------------|---|
A-----------------|-----------------|-----------------|---|
E-1-1-1-1-1-1-1-1-|-1-1-1-1-1-1-1-1-|-1-1-1-1-1-1-1-1-|-1-|

THIRD VERSE
  F        G        Bb        F
G--------|--------|---------|----------------|
D--------|--------|---------|----------15-SU-|
A--------|--------|-1-1-----|-------15-------|
E-1------|-3------|---------|-1-1------------|

  F        G        Bb        F
G--------|--------|---------|-------------1---|
D--------|--------|---------|-----1---3-------|
A--------|--------|-1-1-----|---3---3---3---3-|
E-1------|-3------|---------|-1---------------|

  F        G        Bb        F
G--------|--------|---------|-----------------|
D--------|--------|---------|----3-5-6-SD-----|
A--------|--------|-1-1-----|-----------------|
E-1------|-3------|---------|-1-1-------------|

  F        G        Bb        F
G--------|--------|---------|-----------------|
D--------|--------|---------|---------1-3-----|
A--------|--------|-1-1-----|-----1-3---------|
E-1------|-3------|---------|-1-1-------------|

CHORUS
  G             Bb              F               Bb
G-------------|---------------|---------------|-3---------------|
D-------------|---------------|-3-3-5-5-7-5-3-|-----------------|
A-------------|-----3-3-5-5-7-|---------------|---1-3-3-4-4-5-5-|
E-3-3-3-3-3-5-|-6-6-----------|---------------|-----------------|

  G             Bb              F               Bb
G-------------|---------------|---------------|-3-3-2-2-0-0-----|
D-------------|---------------|-3-3-5-5-7-5-3-|-------------3-3-|
A-------------|-----3-3-5-5-7-|---------------|-----------------|
E-3-3-3-3-3-5-|-6-6-----------|---------------|-----------------|

  G             Bb              F               Bb
G-------------|---------------|---------------|-3---------------|
D-------------|---------------|-3-3-5-5-7-5-3-|-----------------|
A-------------|-----3-3-5-5-7-|---------------|---1-3-3-4-4-5-5-|
E-3-3-3-3-3-5-|-6-6-----------|---------------|-----------------|

  G             Bb              F                G
G-------------|---------------|---------------|-----------------|
D-------------|---------------|-3-3-5-5-7-5-3-|-----------------|
A-------------|-----3-3-5-5-7-|---------------|-----------------|
E-3-3-3-3-3-5-|-6-6-----------|---------------|-(3)-------------|

   F
G|------------8-----9-9-|
D|---3--3---------------| [X3]
A|--------6-6---7-7-----|
E|-1--1-----------------|

  F
G-----------------|-----------------|-----------------|---|
D-----------------|-----------------|-----------------|---|
A-----------------|-----------------|-----------------|---|
E-1-1-1-1-1-1-1-1-|-1-1-1-1-1-1-1-1-|-1-1-1-1-1-1-1-1-|-1-|

(5) - hold note   SD - slide down   SU - slide up

SMB's bassist Lonnie Turner plays some incredible runs and fills throughout this song, 
especially in the chorus.  I've tried to get down the basic tablature for the song, 
transcribing by ear, however I'm sure it is far from the original note for note. 
I have included the chords above the tablature so that you can try to figure out what 
Lonnie was doing, or otherwise make up your own improvisations.  Have fun with it!
Suggest correction
comments
print report bad tab
3 comments total.
0 reply
Wulf5577 10 Jan 20, 2008 09:21 PM

woo thank you for being only one to tab, i needed this song

0 reply
tackzx 31 Aug 13, 2009 06:35 PM

Your the shit dude.

-2 reply
metalfatigue5 10 Apr 09, 2014 08:04 PM

look, no offense, but this is completely wrong.

guest
You may want to rate the tab now too:
select rating
Wanna post a correction for this tab? Suggest correction