Oops, an error
Loading. Please wait.

Jungle Love power

version 1
version 1

Whole song

Interactive

7,493 views 3 this week
4 commentsread comments
1 2 3 4 5
1 last vote to show rating
add to favorites
guitar tuner
Autoscroll
slow
fast
+/-
esc
set tempo
stop
File Format
Filesize

.ptb
33 Kb
"Jungle Love"
demo version
Play now

or get full version for Free

×
Get full version now!
Learn and play this song
in Tab Pro
Try for free

or get $10 off Welcome Bonus

Get welcome bonus
Get access to Tab Pro version of “Jungle Love”!
Tab Pro is a premium guitar tab service, available on PC, Mac, iOS and Android
TRY FOR FREE
Your download will start in 7 seconds
×
Like this song? We have more! Follow us on Facebook for daily tips, lessons and other guitar-related content.
To download “Jungle Love” Power tab click button below
Please note that you must have Power Tab software installed on your
computer in order to view this file.
Suggest correction
Give kudos to tab author, rate the tab!
1 2 3 4 5
comments
report bad tab
4 comments total. Showing first comments.
0 reply
TheThirdDay 553 Feb 26, 2010 04:15 PM

Very good tab.

0 reply
TheThirdDay 553 Feb 26, 2010 04:23 PM

My only comment is that I think the intro:

|-----------------|
|-----------------|
|-----------------|
|-----------------|
|-------0-2-4-0-9-|
|-0-2-4-----------|


is played an octave up, something like this:

|------------------|
|---------------11-|
|--------7-9-11-11-|
|-7-9-11--------9--|
|------------------|
|------------------|

0 reply
TheThirdDay 553 Feb 26, 2010 04:24 PM

Oops. This is what I meant to tab:

e|------------------|
b|------------------|
g|---------------11-|
d|--------7-9-11-11-|
a|-7-9-11--------9--|
e|------------------|


I accidentally put it one string too high. My bad.

guest