Oops, an error
Loading. Please wait.

Keep On Rocking Me Baby Tab

version 1
version 1

Whole song

Interactive

12,210 views 21 this week
no commentswrite comment
1 2 3 4 5
x 14
add to favorites
launch autoscroll
font size
0
reset
how to read this tab
guitar tuner
Autoscroll
slow
fast
+/-
esc
set tempo
stop
Help us to improve Ultimate-Guitar.com Take our survey!
×
Author
Difficulty
novice
Steve Miller Band- Keep On Rocking Me Baby
Tuning: Standard

Intro:
e|-------------------------------------------------------------------|
B|-------------------------------------------------------------------|
G|-----------------9------------9-------9-------9-------9-------9----|x3
D|---77--9\----7-9-9--9\---9h11----9h11----9h11----9h11----9h11----9\|
A|---77--9\----7-9-7--9\---9-------9-------9-------9-------9-------9\|
E|---55--7\----5-7----7\-------------------------------------------7\|
                                                                
Post Intro:
e|-----------------------|
B|-----------------------|
G|-----------------------|x2
D|-----------------------|
A|--------2-5----2-------|
E|---2-5-------5---------|

Verses and Chorus:
e|-------------------------------------------------------------------------|
B|-------------------------------------------------------------------------|
G|-------------------------------------------------------------------------|
D|-------------------------------------------------------------------------|
A|-9-9-11-9-9-9-11-9-9-9-11-9-9-9-11-9\-7-7-9-7-7-7-9-7-7-7-9-7-7-7-9-7\---|
E|-7-7-7--7-7-7-7--7-7-7-7--7-7-7-7--7\-5-5-5-5-5-5-5-5-5-5-5-5-5-5-5-5\---|
 PM. . . . . . . . . . . . . . . . . . . . . . . . . . . . . . . . . . .

e|--------------------------------------------------------------------| Repeat
B|--------------------------------------------------------------------|how ever
G|--------------------------------------------------------------------|many times
D|--------------------------------------------------------------------|you want.
A|2-2-4-2-2-2-4-2-2-2-4-2-2-2-4-2\-9-9-11-9-9-9-11-9-9-9-11-9-9-9-11-9|  
E|0-0-0-0-0-0-0-0-0-0-0-0-0-0-0-0\-7-7-7--7-7-7-7--7-7-7-7--7-7-7-7--7|  
 PM. . . . . . . . . . . . . . . . . . . . . . . . . . . . . . . . . .

For the chorus just play a little bit louder, and then fade out towards the end.

\- slide down to infinity or designated frets
h- hammer on
Suggest correction
comments
print report bad tab
guest
You may want to rate the tab now too:
select rating
Wanna post a correction for this tab? Suggest correction