Oops, an error
Loading. Please wait.

Rock N Me tab

version 1
version 1

Whole song

Interactive

54,783 views 48 this week
1 commentread comment
1 2 3 4 5
x 7
add to favorites
×
Save as Personal and add changes to this tab that will be seen only by you. Learn more ›
×
You can save this tab as Personal to edit and correct it or add notes. All changes will be seen only by you. Learn more »
launch autoscroll
font size
0
reset
how to read this tab
guitar tuner
backing track
0:00
0:00
edit
Autoscroll
slow
fast
+/-
esc
set tempo
stop
Author
Difficulty
[Intro]
B A B B
[Riff 1]    
e|------------------------|
B|------------------------|
G|----4------4-------4----|
D|4^6----4^6-----4^6------|
A|------------------------|
E|------------------------|

B A B B B A B
[Riff 1]    
e|------------------------|
B|------------------------|
G|----4------4-------4----|
D|4^6----4^6-----4^6------|
A|------------------------|
E|------------------------|

B A B B A A B
[Riff 1]    
e|------------------------|
B|------------------------|
G|----4------4-------4----|
D|4^6----4^6-----4^6------|
A|------------------------|
E|------------------------|

[Riff 2]
e|----------------------|
B|----------------------|
G|----------------------|
D|----------------------|
A|----2-5-0-2-----------|
E|2-5-------------------|

            B                                                         
Well I been looking real hard and I'm tryin' to find a job but it 
A
just keeps getting every day
          E                                             B
But I gotta do my part cause I know in my heart I gotta please my sweet baby yeah
                                                                                      
           B                                                  
Well I aint superstitious and now don't get suspicious but my 
A
woman is a friend of mine
          E                                                       B
And I know that it's true that all the things that I do will come back 
to me in my sweet time

          B
So keep a rock'n me baby
        A
Keep a rock'n me baby
        E
Keep a rock'n me baby
        B
Keep a rock'n me baby

 
            B                                                  A
I went from Phoenix Arizona all the way to Tacoma Philadelphia Atlanta LA
    E                                                   B
Northern California where the girls are warm so I could be with my sweet baby yeah

        B
Keep a rock'n me baby
        A
Keep a rock'n me baby
        E
Keep a rock'n me baby
        B  
Keep on rock'n baby, 

Baby Baby Baby
B                B A B    
Keep on a rock'n, 

N.C.               
[Riff 1]    
e|------------------------|
B|------------------------|
G|----4------4-------4----|
D|4^6----4^6-----4^6------|
A|------------------------|
E|------------------------|

rock'n me baby (x2)

[Riff 1]    
e|------------------------|
B|------------------------|
G|----4------4-------4----|
D|4^6----4^6-----4^6------|
A|------------------------|
E|------------------------|

[Riff 2]
e|----------------------|
B|----------------------|
G|----------------------|
D|----------------------|
A|----2-5-0-2-----------|
E|2-5-------------------|
wooooooooooooooooooo yeah

B                                                         A
Don't get suspicious and now don't be suspicious babe you know you are 

a friend of mine
        E                                                          B
And you know that its true that all the things that I do are gonna come back to you in sweet time
            B                                                   A
I went from Phoenix Arizona all the way to Tacoma Philadelphia Atlanta LA
          E                                                     B
Northern California where the girls are warm so I could hear my sweet baby yeah
          B
Keep on a rock'n me baby
          A
Keep on a rock'n me baby
          E
Keep on a rock'n me baby
          B
Keep on a rock'n me rock'n me rock'n baby baby baby
          B
Keep on a rock'n me baby
          A
Keep on a rock'n me baby
          B
Keep on a rock'n me baby
          B
Keep on a rock'n me baby

            
            
Suggest correction
Creating personal tab
Creating personal tab
You can edit any tab online and save it as your Personal.

You can edit, replace or remove any tab part or add personal notes – all changes will be seen only by you.

Personal tabs can be accessed anytime from any device, even offline.
Learn more »
comments
print report bad tab
1 comment total.
+1 reply
reaper811 10 Mar 12, 2010 11:44 AM

Layout's a bit odd, but it's an accurate tab.

guest
You may want to rate the tab now too:
select rating
Wanna post a correction for this tab? Suggest correction