Oops, an error
Loading. Please wait.

Rockin Me Bass Tab

version 1
version 1

Whole song

11,461 views 33 this week
no commentswrite comment
1 2 3 4 5
accurate
x 3
add to favorites
launch autoscroll
font size
0
reset
guitar tuner
Tab Pro tools
  • play this tab
  • loop segment
  • change instrument
  • show fretboard
  • metronome
×
Best way to learn
"Rockin Me"
Autoscroll
slow
fast
+/-
esc
set tempo
stop
THE STEVE MILLER BAND - "Rock N' Me" - Bass Tab

Common Time(4/4)
Standard Tuning(EADG)

INTRO:

rest(x3 bars)

|---------------|---------------|---------|---------------------|
|---------------|---------------|---------|---------------------|
|---------------|-----------5-7-|---------|-5-7-5-7-7-5-7-5-7---|
|-r-r-r-r-0-4-5-|-7\0-r-r-0-----|-7\0-r-r-|-------------------5-|
  1 2 3 & a 4 &   1 2 3 & a 4 &   1 2 3 4   1 & a 2 & 3 & a 4 &

|-----------|---------------|---------|-----------------------------|
|-----------|---------------|---------|-----------------------------|
|-----------|-----------5-7-|---------|-----------------------------|
|-7\0-r-4-5-|-7\0-r-r-0-----|-7\0-r-r-|-0-0-r-0-0-0-r-0-0-0-r-0-0-0-|
  1 2 3 4 &   1 2 3 & a 4 &   1 2 3 4   1 e & a 2 e & a 3 e & a 4 e

|----------------|---------------|
|----------------|---------------|
|-------5-r------|-------5-r-.-.-|
|-0-5-7-----5-7~-|-0-5-7-----4-5-|
  1 & 2 & 3 & 4    1 & 2 & 3 & 4 

1ST VERSE:
|-----------------|-----------------|-----------------|
|-----------------|-----------------|-----------------|
|-----------------|-----------------|-----------------|
|-7-7-7-7-7-7-7-7-|-7-7-7-7-7-7-7-7-|-5-5-5-5-5-5-5-5-|
  1 & 2 & 3 & 4 &   1 & 2 & 3 & 4 &   1 & 2 & 3 & 4 &

|-----------------|-----------------|-----------------|
|-----------------|-----------------|-----------------|
|-----------------|-----------------|-----------------|
|-5-5-5-5-5-5-5-5-|-0-0-0-0-0-0-0-0-|-0-0-0-0-0-0-0-0-|
  1 & 2 & 3 & 4 &   1 & 2 & 3 & 4 &   1 & 2 & 3 & 4 &

                (x3)
|-------------------|-----------------|-----------------|
|*-----------------*|-----------------|-----------------|
|*-----------------*|---------------_-|-----------------|
|--7-7-7-7-7-7-7-7--|-7-7-7-7-7-7-7-0-|-5-5-5-5-5-5-5-5-|
   1 & 2 & 3 & 4 &   1 & 2 & 3 & 4 &   1 & 2 & 3 & 4 &

|-----------------|-----------------|-----------------|
|-----------------|-----------------|-----------------|
|-----5-------5---|-----------------|-----------------|
|-5-5---5-5-5---5-|-0-0-0-0-0-0-0-0-|-0-0-0-0-0-0-0-0-|
  1 & 2 & 3 & 4 &   1 & 2 & 3 & 4 &   1 & 2 & 3 & 4 &

|-----------------|-----------------|
|-----------------|-----------------|
|-----------------|-----------------|
|-7-7-7-7-7-7-7-7-|-7-7-7-7-7-7-7-7-|
  1 & 2 & 3 & 4 &   1 & 2 & 3 & 4 &  

1ST CHORUS:
|-----------------|-----------------|-----------------|
|-----------------|-----------------|-----------------|
|-----------------|---------------_-|-----------------|
|-7-7-7-7-7-7-7-7-|-7-7-7-7-7-7-7-0-|-5-5-5-5-5-5-5-5-|
  1 & 2 & 3 & 4 &   1 & 2 & 3 & 4 &   1 & 2 & 3 & 4 &

|-----------------|-----------------|-----------------|
|-----------------|-----------------|-----------------|
|-----5-------5---|-----------------|-----------------|
|-5-5---5-5-5---5-|-0-0-0-0-0-0-0-0-|-0-0-0-0-0-0-0-0-|
  1 & 2 & 3 & 4 &   1 & 2 & 3 & 4 &   1 & 2 & 3 & 4 &

|-----------------|-----------------|
|-----------------|-----------------|
|-----------------|-----------------|
|-7-7-7-7-7-7-7-7-|-7-7-7-7-7-7-7-7-|
  1 & 2 & 3 & 4 &   1 & 2 & 3 & 4 &

VERSE 2:
|-----------------|-----------------|-----------------|
|-----------------|-----------------|-----------------|
|-----------------|-----------------|-----------------|
|-5h7-7-7-7-7-7-7-|-7-7-7-7-7-7-7-7-|-5-5-5-5-5-5-5-5-|
  1 & 2 & 3 & 4 &   1 & 2 & 3 & 4 &   1 & 2 & 3 & 4 &

|-----------------|-----------------|-----------------|
|-----------------|-----------------|-----------------|
|-----------------|-----------------|-----------------|
|-5-5-5-5-5-5-5-5-|-0-0-0-0-0-0-0-0-|-0-0-0-0-0-0-0-0-|
  1 & 2 & 3 & 4 &   1 & 2 & 3 & 4 &   1 & 2 & 3 & 4 &

|-----------------|-----------------|
|-----------------|-----------------|
|-----------------|-----------------|
|-7-7-7-7-7-7-7-7-|-7-7-7-7-7-7-7-7-|
  1 & 2 & 3 & 4 &   1 & 2 & 3 & 4 &

2ND CHORUS:
|-----------------|---------------|-----------------|
|-----------------|-----------6-8-|-----------------|
|-----------------|---------9-----|-----------------|
|-5h7-7-7-5h7-7-7-|-5h7-7-7-------|-3h5-5-5-3h5-5-5-|
  1 & 2 & 3 & 4 &   1 & 2 & 3 & 4   1 & 2 & 3 & 4 &

|-----------------|---------------|-----------------|
|-----------------|---------4-6---|-----------------|
|-----------------|-------7-------|-----------------|
|-3h5-5-5-3h5-5-5-|-3h5-5-------4/|-0-0-0-0-0-0-0-0-|
  1 & 2 & 3 & 4 &   1 & 2 3 & 4 &   1 & 2 & 3 & 4 &

|--------------8-|-----------------|---------------|
|---------9-11---|-----------------|-------6-7-8-9-|
|----------------|-----------------|---5-7---------|
|-0-0-0-0--------|-7-7-7-7-7-7-7-7-|-7-------------|
  1 & 2 & 3 &  4   1 & 2 & 3 & 4 &   1 & 2 & 3 & 4

VERSE 3:
|-----------------|-----------------|-----------------|
|-----------------|-----------------|-----------------|
|-----------------|---------7---7---|-----------------|
|-7-7-7-7-7-7-7-7-|-7-7-7-7---7---7-|-5-5-5-5-5-5-5-5-|
  1 & 2 & 3 & 4 &   1 & 2 & 3 & 4 &   1 & 2 & 3 & 4 &

|-----------------|-----------------|-----------------|
|-----------------|-----------------|-----------------|
|---------5---5---|-----7---7---5---|-----7---7---5---|
|-5-5-5-5---5---5-|-0-0---0---0---0-|-0-0---0---0---0-|
  1 & 2 & 3 & 4 &   1 & 2 & 3 & 4 &   1 & 2 & 3 & 4 &

|-----------------|-----------------|-----------------|
|-----------------|-----------------|-----------------|
|-------------.-_-|---------7---7---|-----------------|
|-7-7-7-7-7-7-7-0-|-7-7-7-7---7---7-|-7-7-7-7-7-7-7-7-|
  1 & 2 & 3 & 4 &   1 & 2 & 3 & 4 &   1 & 2 & 3 & 4 &

|-----------------|-----------------|-----------------|
|-----------------|-----------------|-----------------|
|---------7---7---|-----------------|---------5---5---|
|-7-7-7-7---7---7-|-5-5-5-5-5-5-5-5-|-5-5-5-5---5---5-|
  1 & 2 & 3 & 4 &   1 & 2 & 3 & 4 &   1 & 2 & 3 & 4 &

|-----------------|-----------------|-----------------|
|-----------------|-----------------|-----------------|
|-----------------|-----------------|-----------------|
|-0-0-0-0-0-0-0-0-|-0-0-0-0-0-0-0-0-|-7-7-7-7-7-7-7-7-|
  1 & 2 & 3 & 4 &   1 & 2 & 3 & 4 &   1 & 2 & 3 & 4 &

|-----------------|
|-----------------|
|---------7---7---|
|-7-7-7-7---7---7-|
  1 & 2 & 3 & 4 &

3RD CHORUS:
|-----------------|-----------------|-----------------|
|-----------------|-----------------|-----------------|
|-----------------|---------7---7---|-----------------|
|-7-7-7-7-7-7-7-7-|-7-7-7-7---7---7-|-5-5-5-5-5-5-5-5-|
  1 & 2 & 3 & 4 &   1 & 2 & 3 & 4 &   1 & 2 & 3 & 4 &

|-----------------|-----------------|-----------------|
|-----------------|-----------------|-----------------|
|---------5---5---|-----------------|-----------------|
|-5-5-5-5---5---5-|-0-0-0-0-0-0-0-0-|-0-0-0-0-0-0-0-0-|
  1 & 2 & 3 & 4 &   1 & 2 & 3 & 4 &   1 & 2 & 3 & 4 &

|-----------------|-----------------|-----------------|
|-----------------|-----------------|-----------------|
|-----------------|-----------------|-----------------|
|-7-7-7-7-7-7-7-7-|-7-7-7-7-7-7-7-7-|-7-7-7-7-7-7-7-7-|
  1 & 2 & 3 & 4 &   1 & 2 & 3 & 4 &   1 & 2 & 3 & 4 &

|-----------------|-----------------|-----------------|
|-----------------|-----------------|-----------------|
|---------7---7---|-----------------|-----------------|
|-7-7-7-7---7---7-|-5-5-5-5-5-5-5-5-|-5-5-5-5-5-5-5-5-|
  1 & 2 & 3 & 4 &   1 & 2 & 3 & 4 &   1 & 2 & 3 & 4 &

|-----------------|-----------------|
|-----------------|-----------------|
|-----------------|-----------------| (to fade-out)
|-0-0-0-0-0-0-0-0-|-0-0-0-0-0-0-0-0-|
  1 & 2 & 3 & 4 &   1 & 2 & 3 & 4 &  

By: Johari Taylor
E-mail: viking@powerup.com.au
More Bass Tabs: http://www.powerup.com.au/~viking/basstab.htm
comments
We did not receive enough feedback on this tab! Please rate:
print report bad tab
1 2 3 4 5
I want to post or [tab]
guest
You may want to rate the tab now too:
select rating
Please do not post tabs as comments. Select "correction" instead!