Oops, an error
Loading. Please wait.

Rockin Me Tab

version 4
version 4

Whole song

671 views 1 this week
no commentswrite comment
1 2 3 4 5
please rate
add to favorites
launch autoscroll
font size
0
reset
how to read this tab
guitar tuner
Autoscroll
slow
fast
+/-
esc
set tempo
stop
Help us to improve Ultimate-Guitar.com Take our survey!
×
Author
Difficulty
This is a tab for beginners who want to play the song but can't quite bend their 
fingers far enough to do the shuffle. anyways, here you go.
INTRO:
E---------------------------------------------------|
B---------------------------------------------------|
G----------9-9--------------------------------------|
D-7-7-9--9-9-9-9-----9------9-----9---11-9----------|
A-7-7-9--9-7-7-9-9h11--9h11---9h11--9h11-9----------|
E-5-5-7--7-----7-------------------------7----------|

E---------------------------------------------------|
B---------------------------------------------------|
G----------9-9--------------------------------------|
D-7-7-9--9-9-9-9-----9------9-----9---11-9----------|
A-7-7-9--9-7-7-9-9h11--9h11---9h11--9h11-9----------|
E-5-5-7--7-----7-------------------------7----------|

E------------------------------------------------------------------|
B------------------------------------------------------------------|
G----------9-9-----------------------------------------------------|
D-7-7-9--9-9-9-9-----9------9-----9---11---------------------------|
A-7-7-9--9-7-7-9-9h11--9h11---9h11--9h11------2-5---2------2-5---2-|
E-5-5-7--7-----7--------------------------2-5-----5----2-5-----5---|


B=

E-------------------------|
B-------------------------|
G-------------------------|
D-9-----------------------|
A-9—----------------------|
E-7-----------------------|

A=

E-------------------------|
B-------------------------|
G-------------------------|
D-7-----------------------|
A-7-----------------------|
E-5-----------------------|

E=

E-------------------------|
B-------------------------|
G-9-----------------------|
D-9-----------------------|
A-7-----------------------|
E-------------------------|



B
Well I've been lookin' real hard

And I'm tryin' to find a job
           A
But it just keeps gettin' tougher every day
         E
But I got to do my part cause I know in my heart
              B
I got to please my sweet baby, yeah

            B
Well, I ain't superstitious

And I don't get suspicious
              A
But my woman is a friend of mine
           E
And I know that it's true that all the things that I do
        B
Will come back to me in my sweet time

                    B
So keep on rockin' me baby
                  A
Keep on a rockin' me baby
                   E
Keep on a rockin' me baby
                  B
Keep on a rockin' me baby

(Listen to the song, you’ll get the idea…)

I went from Phoenix, Arizona
All the way to Tacoma
Philadelphia, Atlanta, L.A.
Northern California where the girls are warm
So I could be with my sweet baby, yeah

Keep on a rockin' me baby
Keep on a rockin' me baby
Keep on a rockin' me baby
Keep on a rockin' me baby
Baby, baby, baby
(PLAY INTRO HERE)
Keep on rockin'
Rockin' me baby
Keep on a rockin'
Rockin' me baby

Don't get suspicious
Now don't be suspicious
Babe, you know you are a friend of mine
And you know that it's true
That all the things that I do
Are gonna come back to you in your sweet time

I went from Phoenix, Arizona
All the way to Tacoma
Philadelphia, Atlanta, L.A.
Northern California where the girls are warm
So I could hear my sweet baby say

Keep on a rockin' me baby
Keep on a rockin' me baby
Keep on a rockin' me baby
Keep on a rockin' me, rockin' me, rockin'
Baby, baby, baby
Keep on a rockin' me baby
Keep on a rockin' me baby
Keep on a rockin' me baby
Suggest correction
What's this?
You can suggest a correction to this tab. Community and Mods will review your correction and vote to approve or reject it.
comments
We did not receive enough feedback on this tab! Please rate:
print report bad tab
1 2 3 4 5
guest
You may want to rate the tab now too:
select rating
Please do not post tabs as comments. Select "correction" instead!