Oops, an error
Loading. Please wait.

Serenade Bass Tab

version 1
version 1

Whole song

Interactive

4,452 views 12 this week
no commentswrite comment
1 2 3 4 5
please rate
add to favorites
launch autoscroll
font size
0
reset
guitar tuner
Autoscroll
slow
fast
+/-
esc
set tempo
stop
Help us to improve Ultimate-Guitar.com Take our survey!
×
Author
This is any easy song by the Steve Miller Band, just follow the rhythm.

Intro/Verse
G-------------------------------------------------|
D-------------------------------------------------|
A-------------------------------------------------|
E-5-5-555-55--1-1-111-11--3-3-333-33--5-5--555-55-|

Chorus

G------------------------------------------------|
D------------------------------------------------|
A----------------------------------------------2-|
E-3-33-33-0123-3-33-33-012-5-55-3h5-0-5-55-3h5---|

G------------------------------------------------|
D------------------------------------------------|
A---------3-4-5-5-5555/7-------------------------|
E-3-3-3333--------------5-5-555-55--1-1-1111-111-|

G----------------------------------------------------|
D----------------------------------------------------|
A----------------------------------------------------|
E-33-3333-333--55-5555-555--55-5555-555-3-1-1-1111-1-|

G--------------------------------------------------|
D--------------------------------------------------|
A--------------------------------------------------|
E-33-3333-333--55-5555-555-------------------------|

FIN
Suggest correction
Give kudos to tab author, rate the tab!
1 2 3 4 5
comments
print report bad tab
guest
You may want to rate the tab now too:
select rating
Please do not post tabs as comments. Select "correction" instead!