Oops, an error
Loading. Please wait.

Swingtown Bass Tab

version 1
version 1

Whole song

Interactive

6,444 views 3 this week
no commentswrite comment
1 2 3 4 5
1 last vote to show rating
add to favorites
launch autoscroll
font size
0
reset
guitar tuner
Autoscroll
slow
fast
+/-
esc
set tempo
stop
Help us to improve Ultimate-Guitar.com Take our survey!
×
Author
-------------------------------------------------------------------------------
			     Swingtown - Steve Miller Band
-------------------------------------------------------------------------------

Tabbed By : Corey
 

Tuning:EADG

  Intro, Verse (0:07)
G|---------|------------------------------------------------------------------|
D|---------|--1---------------------------------------------------------------|
A|-1-0--1--|-----1------------------------------------------------------------|
E|----03---|------------------------------------------------------------------|
            Last time you do 1-1

 Chorus (1:14)
G|----------------------------------------------------------------------------|
D|----------------------------------------------------------------------------| 
A|----------------------------------------------------------------------------| 
E|-1-1--1-1-1--1-1-1-r--1-r--1--1-1-1--1-1-1--1-1-1-r--1-r-11\----------------|

G|----------------------------------------------------------------------------|
D|----------------------------------------------------------------------------|
A|----------------------------------------------------------------------------|
E|-1-1-1--1-1-1--1-1-1-r--1-r--1----------------------------------------------|
    If it is a slide it is 11th fret, no slide is 1st fret
     
 Verse: (1:26)
 

   2nd Chorus:(2:04)
G|----------------------------------------------------------------------------|
D|----------------------------------------------------------------------------|
A|----------------------------------------------------------------------------|
E|-1-1--1-1-1-r--1-r--1-r--1-/11--1-1--1-1-1-r--1-r--1-r--1--1-1-1-1--1-1-1---|
    
G|----------------------------------------------------------------------------|
D|----------------------------------------------------------------------------|
A|-------------------------------------------------------1-0------------------|
E|-r--1-r--1-r--1-r-1-/11--1-1--1-1-1-r--1-r--1-r--1--1-----03---------------|
If it is a slide it is 11th fret, no slide is 1st fret
  
  Brief break (2:20 - 2:26)
  
  Verse (2:26)


| /  slide up     r rest
| \  slide down
| h  hammer-on
| p  pull-off
| ~  vibrato
| +  harmonic
| x  Mute note
===============================================================================
Suggest correction
Give kudos to tab author, rate the tab!
1 2 3 4 5
comments
print report bad tab
guest
You may want to rate the tab now too:
select rating
Wanna post a correction for this tab? Suggest correction