Oops, an error
Loading. Please wait.

Take The Money And Run Bass Tab

version 1
version 1

Whole song

Interactive

11,382 views 15 this week
no commentswrite comment
1 2 3 4 5
accurate
x 3
add to favorites
launch autoscroll
font size
0
reset
guitar tuner
Tab Pro tools
  • play this tab
  • loop segment
  • change instrument
  • show fretboard
  • metronome
×
Best way to learn
"Take The Money And Run"
Autoscroll
slow
fast
+/-
esc
set tempo
stop
Contributor
Difficulty
novice
Steve Miller
Take the Money and Run

Verse:
G------------------------------------------------------------------------|
D------------------------------------------------------------------------|
A-----------------------3-3-----3-3------3-------------------------------|
E-3-3---3-1--1-1-----1--------1------------1------3-3----1--1-1--------1-|

G---------------------------------------------------------|
D---------------------------------------------------------|
A-3-3-------3---3-2----0----------------------------------|
E--------1------------------3-3--------1---1-1-------1----|

G--------------------------------------------------------------|
D--------------------------------------------------------------|
A-3---3------3-x--3----3---------------------------------------|
E-----------------------1--1------3-3--------1--1-1----------1-|

G------------------|
D------------------|
A-3----3-----1-----|
E----------------1-|

1st Chorus:

G-----------------------------------|
D-----------------------------------|
A-----------------------------------|
E---3-3-------1--1-1-------1------x-|

G--------------------------------------------------------------|
D--------------------------------------------------------------|
A-3-3-------3--------------------------------------------------|
E------------0----1-----1-2-----2---3---3-----3-1---1---1---1--|

G------------------------------------------------------|
D-----------3------------------------------------------|
A-3-3-----3-----3--------------------------------------|
E-----------------1----3-3-------3-3---1-------1-----1-|

G----------------------------------------------------------------------------|
D----------------------------------------------------------------------------|
A--3-3-------3----3----------------------------------------------------------|
E-------------1---------1--2------3-----3---------3-1------1-------1-----1-1-|

G----------------------|
D----------------------|
A-3-3--------1---------|
E--------------1-------|

Second Verse, Same as the First

2nd Chorus:
G--------------------------------------------------------------------|
D--------------------------------------------------------------------|
A----------------------------3-3-3-3--3-3-----3----------------------|
E-3---3-3--3------1----1-1-1--------------------0-------1----1-1-2-2-|

G------------------------------------------------------------------|
D-------------------------------------------------3----------------|
A------------------------------3-3-3-3---3-----3----3----3---2-----|
E-3---3-3---3---1-1-1---1----1-------------------------------------|

G------------------------------------------------------------------|
D------------------------------------------------------------------|
A--------------------------------------3-3---3---3-----------------|
E-3--3-3----3-3------1---1-1-------1-----------1----0--1---0-2--0--|

G--------------------------------------------------|
D--------------------------------------------------|
A---------------------------------------3-3---1----|
E-3----3------3-1---1-1-----1--------1----------1--|

Interlude:
G--------------------------------------------------------------|
D---------------------------------------------12-13---14-------|
A---------------------------------3---3--3----------------0--8-|
E-3--3--------3---------1-------1------------------------------|

G------------------------------------------------------|
D------------10------10------13-/14------13-/14--------|
A-10--10-------8-8------10----------15---------15------|
E--------------------------8---------------------------|

G---------------10----------------------------------------------------------|
D-----------------10-------10------13/14------------------------------------|
A-10-10--------------8--8-----10---------15--15--------------------3-3-3-1--|
E--------------------------------8---------------15----3-3--3--1-1--------1-|

Outro:
G------------------------------|
D------------------------------|
A------------------------------|
E-3---3-3--3------1----1-1-1---|

END
comments
We did not receive enough feedback on this tab! Please rate:
print report bad tab
1 2 3 4 5
I want to post or [tab]
guest
You may want to rate the tab now too:
select rating
Please do not post tabs as comments. Select "correction" instead!