Oops, an error
Loading. Please wait.

The Joker Bass Tab

version 1
version 1
41,540 views 30 this week
1 commentread comment
1 2 3 4 5
x 7
add to favorites
launch autoscroll
font size
0
reset
guitar tuner
Autoscroll
slow
fast
+/-
esc
set tempo
stop
Help us to improve Ultimate-Guitar.com Take our survey!
×
Author
g---------------------------------------------------------------------------|
d----------------------------0-2-00-----------------------------------------|
a----------------0---2-33--------------0--2-3333-2-0------------------------|
e-------22------------------------------------------------------------------|
                                Rythme
g---------------------------------------------------------------------------|
d---------------------------------------------------------------------------|
a---------22-----44-----22--------------------------------------------------|
e------22--------------------22---------------------------------------------|
                               Chorus
Suggest correction
comments
print report bad tab
1 comment total.
+1 reply
John McNally 188 Mar 28, 2010 03:05 PM

the key is G and the first two notes are on fret 3 not 2

guest
You may want to rate the tab now too:
select rating
Wanna post a correction for this tab? Suggest correction