Oops, an error
Loading. Please wait.

The Joker Bass Tab

version 5
version 5
1,531 views 9 this week
no commentswrite comment
1 2 3 4 5
x 6
add to favorites
launch autoscroll
font size
0
reset
guitar tuner
×
Best way to learn
"The Joker"
Autoscroll
slow
fast
+/-
esc
set tempo
stop
Author
Difficulty
  follow
intermediate
Steve Miller Band: The Joker: Key of G

G|------------------------------------------------------------------------||
D|------------------------------------------------------------------------||
A|----------------0-0---2-4-2-2----------0-0-0-0-0------------------------||
E|--0-0------2--4-----------------2---4---------------4-2-----------------||


[Intro/Verse]

G|---------------------------------------------||
D|---------------------------------------------||
A|----------------0-0--------------------0-0---||
E|--0-0----------------------0-0---------------||
                                                |(x8)
G|---------------------------------------------||
D|--------------------------2-2----------------||
A|----------------0-0--------------------0-0---||
E|--0-0----------------------------------------||


[Chorus]

G|---------------------------------------------||
D|---------------------------------------------||
A|----------------0-0--------------------0-0---||
E|--0-0---------------------0-0----------------||

G|-------------------------------------------------------------||
D|--------------------------2-2----------2-2-2-2-2-2-2-2-2-2-2-||
A|----------------0-0------------------------------------------||
E|--0-0--------------------------------------------------------||(x3)


[Chorus: End]

G|------------------------------------------------------------------------||
D|------------------------------------------------------------------------||
A|----------------0-0---2-4-2-2----------0-0-0-0-0------------------------||
E|--0-0------2--4-----------------2---4---------------4-2-----------------||


[Verse]

G|---------------------------------------------||
D|---------------------------------------------||
A|----------------0-0--------------------0-0---||
E|--0-0---------------------0-0----------------||
                                                |(x8)
G|---------------------------------------------||
D|--------------------------2-2----------------||
A|----------------0-0--------------------0-0---||
E|--0-0----------------------------------------||


[Chorus]

G|---------------------------------------------||
D|---------------------------------------------||
A|----------------0-0--------------------0-0---||
E|--0-0---------------------0-0----------------||

G|-------------------------------------------------------------||
D|--------------------------2-2----------2-2-2-2-2-2-2-2-2-2-2-||
A|----------------0-0------------------------------------------||
E|--0-0--------------------------------------------------------||(x5)


[Chorus: End]

G|------------------------------------------------------------------------||
D|------------------------------------------------------------------------||
A|----------------0-0---2-4-2-2----------0-0-0-0-0------------------------||
E|--0-0------2--4-----------------2---4---------------4-2-----------------||


[Outro/Verse]

G|---------------------------------------------||
D|---------------------------------------------||
A|----------------0-0--------------------0-0---||
E|--0-0----------------------0-0---------------||
                                                |(till end)
G|---------------------------------------------||
D|--------------------------2-2----------------||
A|----------------0-0--------------------0-0---||
E|--0-0----------------------------------------||

(fade out)
Suggest correction
comments
print report bad tab
guest
You may want to rate the tab now too:
select rating
Wanna post a correction for this tab? Suggest correction