Oops, an error
Loading. Please wait.

Flat Baroque Tab

version 1
version 1

Whole song

Interactive

1,283 views 1 this week
1 commentread comment
1 2 3 4 5
please rate
add to favorites
launch autoscroll
font size
0
reset
how to read this tab
guitar tuner
Autoscroll
slow
fast
+/-
esc
set tempo
stop
Help us to improve Ultimate-Guitar.com Take our survey!
×
Author
E|-12p0---------9p0-----0--7p0-----|---4p0-----0----------|--------------------|
B|------9----0------7----------3---|-0-----7------------0-|--------------------|
G|--------11----------7----------6-|---------7--------2---|-2h4~---4-2---------|
D|---------------------------------|--------------0h4-----|---2~-------4p2---2-|
A|---------------------------------|----------------------|----------------5---|
E|--0------------------------------|----------------------|---0~---------------|

E-|---------------|-7-------5--------|-4p0--2--4--0h2p0-----0-|------------------|
B-|---------------|-3h5--5--3p2------|-------------------3----|------0-2-3-------|
G-|---------------|--------------4p2-|-4----------2-----------|----4-----0--4p2p-|
D-|---------------|------------------|-------------------4----|----------0-------|
A-|-4p2-------2---|------------------|------------------------|------------------|
E-|-----5-3h4---0-|-0-------0--------|-0----------0-----------|--0-------3-------|

E|---|-----------------|-7------5--------|-4p0-2-4-0h2p0----0-|------------------|
B|---|-----------------|-3h5--5-3p2------|----------------3---|------0-2-3-------|
G|-0-|-2~--------------|-------------4p2-|-4-------2----------|----4-----0--4p2p-|
D|---|-0~---4p2p0-2~---|-----------------|----------------4---|----------0-------|
A|---|------------0~---|-----------------|--------------------|------------------|
E|---|-----------------|-0------0--------|-0-------0----------|--0-------3-------|

E|---|-------^---^---^-----||--10----10--9p7------|-5h7--7p5--7h9-----|-------10--|
B|---|-------^3--^3--^3----||*--7h8----------10p7-|---5-----------5---|--------7--|h
G|-0-|--2~---^2--^2--^2----||------------9--------|-----------7-----7-|-----------|
D|---|--0~---^0--^0--^0----||---------------------|-------------------|-----------|
A|---|-------^---^---^-----||*--0--------0--------|---0-------0-------|-----0-----|
E|---|-------^---^---^-----||---------------------|-------------------|-----------|

E|---10-9p7------|-14p12p10--12-14-15--14---||-12p0---------9p0-----0--7p0-----|
B|-8--------10p7-|-10--------------12--10--*||------9----0------7----------3---|
G|------9--------|--------------------------||--------11----------7----------6-|
D|---------------|--------------------------||---------------------------------|
A|------0--------|--0----------------------*||---------------------------------|
E|---------------|--------------------------||--0------------------------------|

E-|---4p0-----0----------|--------------------|----------------------||---------|
B-|-0-----7------------0-|--------------------|-------------------2--||-2h3---3-|
G-|---------7--------2---|-2h4~---4-2---------|-----------------4----||---0-----|
D-|--------------0h4-----|---2~-------4p2---2-|---------------2------||---0-----|
A-|----------------------|----------------5---|-4p2-------2----------||---------|
E-|----------------------|---0~---------------|-----5-3h4---0--------||---3-----|

E|-----------|---------------|----------------------|----------------------|----|
B|-----------|-----3--3h5--3-|-----0h3--3-----------|----------------------|-0--|h
G|-4p2p0-----|-2h4------0----|-----0------4p2p0-----|----------------------|-0--|
D|-0-----2p0-|-0-------------|-----0------0-----4p0-|-2h4--2h4p2p0---------|-0--|
A|-----------|----------3----|----------------------|--------------2p0-----|----|
E|-3---------|-3-------------|-----3------3---------|-0----------------0h2-|-3--|

E|-----------------|-------------0-2-|-3p2p0-----------|-0------------^0---^0--|
B|-3---3-----------|-----3--3h5------|-0-----3p0---0-3-|----3p1p0-----^1---^1--|
G|-------4p2p0-----|-2h4------0------|-------2---2---0-|-0------------^2---^2--|
D|-------0-----2p0-|-0---------------|-----------------|--------------^2---^2--|
A|-----------------|----------3------|---------------2-|-3---------0--^----^---|
E|-------3---------|-3---------------|-0-----2---3-----|--------------^----^---|

E|--^0---||---------------------------|---------------0-|----------------------|
B|--^1---||------1h3--3-1h3p1p0-------|-----------0h1---|-1h3--3--1h3p1p0------|
G|--^2---||------2---------------2p0--|-2--2p0-2--------|-2---------------2p0--|
D|--^2---||------0--------------------|-3------0--------|----------------------|
A|--^----||---------------------------|-----------------|-0-------2------------|
E|--^----||-------------0-------------|-1------3--------|----------------------|

E|------------------|----0------------------|-------------------^0--|------------|
B|---0h1-0h1--3-1h3-|-----------------------|-------------------^0--|------------|
G|-2----------------|-----------------------|-0h2-2-2-0---------^2--|------------|
D|--------------2---|----2-2-2-2-4p2--0h2-4-|---0-------4--2----^2--|-2-2-2-2-4--|p
A|-3-----0----------|----0-------2--------2-|----------------0--^---|-0-------2--|
E|------------------|-----------------3-----|-----------3-------^---|------------|

E|-----------|-------------------^3--|-5-3-3-3-7p5-8p5-10-|-10-8-8-8-12p10-13p10-|
B|-----------|-------------------^1--|-3-------5---6----8-|--8-------10----11----|
G|-----------|--0h2-2-2-0--------^0--|-5-------7---5----7-|-10-------12----10----|
D|-2--0h2--4-|----0-------4-2----^---|-3-------5---7----9-|--8-------10----12----|
A|---------2-|------------2---3--^---|--------------------|----------------------|
E|----3------|-------------------^---|--------------------|----------------------|

E|-15-||---^16--^16--^16--^14--^16----^17p14---^17-|--^16--^16--^16--^14--^16--|
B|-13-||*--^-0--^-0--^-0--^-0--^-0----^15------^15-|--^-0--^-0--^-0--^-0--^-0--|
G|-12-||---^16--^16--^16--^16--^16----^14------^14-|--^16--^16--^16--^16--^16--|
D|-14-||---^14--^14--^14--^14--^14----^--------^---|--^14--^14--^14--^14--^14--|
A|----||*--^-0--^----^----^----^------^--------^---|--^-0--^----^----^----^----|
E|----||---^----^----^----^----^------^--------^---|--^----^----^----^----^----|

E|--^12p9--^12--||----^14--14-12-10--14----^15p12---15-|---^14--14-12-10--14---|
B|--^10----^10-*||----^10--10-10-10--10----^13------13-|---^10--10-10-10--10---|
G|--^-9----^-9--||----^-0------------------^12------12-|---^-0-----------------|
D|--^-0----^----||----^--------------------^-0---------|---^-------------------|
A|--^------^---*||----^--------------------^-----------|---^-------------------|
E|--^------^----||----^--------------------^-----------|---^-------------------|

E|--^10p7---10-|----^16--^16--^16--^14--^16----^17p14---^17-|---^16--^16--^16--^
B|--^-8------8-|----^-0--^-0--^-0--^-0--^-0----^15------^15-|---^-0--^-0--^-0--^
G|--^-7------7-|----^16--^16--^16--^16--^16----^14------^14-|---^16--^16--^16--^
D|--^-0--------|----^14--^14--^14--^14--^14----^--------^---|---^14--^14--^14--^
A|--^----------|----^-0--^----^----^----^------^--------^---|---^-0--^----^----^
E|--^----------|----^----^----^----^----^------^--------^---|---^----^----^----^

E|-14--^16---^12p9--^12-|------------||--14----------------------|-------------|
B|--0--^-0---^10----^10-|------------||*----12-------12-------12-|-------12----|
G|-16--^16---^-9----^-9-|------------||--------11-------11-------|-11-------11-|
D|-14--^14---^-0----^---|------------||--------------------------|----14-------|
A|-----^-----^------^---|------------||*----------11-------13----|-------------|
E|-----^-----^------^---|------------||---0----------------------|-------------|

E|---------------||-12--------8------8-|-----8--------------|--12---------0-----|
B|--------------*||----8--------8------|-8-----8------------|-----10--------10--|
G|---------------||------9-------------|---9----------------|-------------------|
Suggest correction
What's this?
You can suggest a correction to this tab. Community and Mods will review your correction and vote to approve or reject it.
comments
We did not receive enough feedback on this tab! Please rate:
print report bad tab
1 2 3 4 5
1 comment total.
0 reply
jamstation 439 wrote on April 2 2008, 08:57 am

This seems incomplete.. what's with the last line of tab? only 3 strings?

guest
You may want to rate the tab now too:
select rating
Please do not post tabs as comments. Select "correction" instead!