Oops, an error
Loading. Please wait.

Highland Wedding Tab

version 1
version 1

Whole song

Interactive

10,957 views 21 this week
1 commentread comment
1 2 3 4 5
please rate
add to favorites
launch autoscroll
font size
0
reset
how to read this tab
guitar tuner
Autoscroll
slow
fast
+/-
esc
set tempo
stop
Help us to improve Ultimate-Guitar.com Take our survey!
×
Highland Wedding                                
Steve  Morse


                                                                              Guitar 1



                                                                                    
E||------------0--2h0----|--0----------0h-2--|--0----------------|-----------------|
B||---------3---------3--|-----3-------------|-------3-----0-----|--0--------------|
G||*--2h-4---------------|--------2----------|-------------------|-------2---------|
D||*--0------------------|-------------------|----------4-----0--|------------0----|
A||----------------------|--0----------------|--2----------------|-----------------|
E||----------------------|-------------------|-------------------|--3--------------|


                                                                                    
----------0--2h0----|--0h-2--5-----2h-5--|--7-----------7h5----|--2-----5----------|
-------3---------3--|--------------------|-----------5------5--|-----3-----2-------|
----4---------------|--------------------|--------4------------|--------------2----|
--------------------|--------------------|-----5---------------|-------------------|
--------------------|--4--------2--0-----|---------------------|-------------------|
--------------------|--------------------|--0------------------|--2----------------|


                                                                     
--7--------10--10h9h7--|--5h-2-----------5--|--3--------2h3h2h0-----|
-----8-----------------|--------3-----2-----|-----0--------------3--|
--------7--------------|-----------2--------|--------0--------------|
-----------------------|--------------------|-----------------------|
-----------------------|--------------------|-----------------------|
--7--------------------|--2--------2--------|--0-----------------2--|


                                                                                    
---------------------|-----------0--2h0----|--0----------------|-------------------|
--0--------3h0-------|--3---------------3--|-----3--2----0-----|-------------------|
-----0---------2--4--|-----4---------------|-------------------|-------2-----0-----|
--------0------------|--------4-----4------|----------------2--|----------2-----0--|
---------------------|--2------------------|--0----------------|-------------------|
--3------------------|---------------------|-------------------|--0----------3-----|


                                                                                  
----------------||--3--------3h2h0-----|--------------------|--------0-----2-----|
----------------||-----0------------3--|--0--------------0--|--3-----------------|
--2------------*||--------0------------|-----0-----2--------|-----4-----4-----4--|
---------------*||---------------------|--------0-----------|--------------------|
--0-------------||---------------------|--------------------|--2-----------------|
----------------||--0---------------2--|--3-----------3-----|--------------------|


                                                                                    
--0-------------2--|--3--------3h2h0-----|--------------------|--------2-----5-----|
-------2-----------|-----0------------3--|--0-----0--------0--|--3--------3--------|
-------------------|--------0------------|-----0-----2--------|-----4-----------2--|
----------2--2-----|-----------2---------|--------0-----0-----|--------------4-----|
--0----------------|---------------------|--------------------|--2-----------------|
-------------------|--0---------------2--|--3-----------------|--------------------|


                                                                                    
--7-----------7-----|--5-------7/-5--3--|--2------------------|--------------------|
-----------5-----5--|-------2-----2-----|-----5-----3-----3h2-|--0-----------------|
--------4-----------|-------2-----2-----|--------------4------|-----------2--------|
-----6--------------|-------------------|--------4------------|--------0--------4--|
--------------------|--0----------------|--2------------------|--------------------|
--0-----------------|-------------------|---------------------|-----3--------2-----|


                                                                                    
--------0-----0--3--|--5-------7/-5--3--|--2------------------|--------------2--5--|
-----0-----0--------|-------2-----2-----|-----5-----3-----3h2-|--0-----------------|
--------------------|-------2-----2-----|--------------4------|--------------------|
--2-----------------|-------------------|--------4------------|--------0-----------|
--------------------|--0----------------|--2------------------|--------------------|
--0-----------------|-------------------|---------------------|-----3-----2--------|


                                                                                    
--7-----------7-----|--------------------|--------------------|--0-----2-----4-----|
-----------5--5--5--|--------------------|--------0-----3-----|--------0-----------|
--------4-----------|--------------0-----|--2-----0-----------|--2-----------4-----|
-----6--------------|--2-----0-----------|--0--4-----4--2--0--|-----------1--2-----|
--------------------|-----------0--2--3--|--------------------|--4--0--2-----------|
--0-----------------|--0--2--3-----------|--------------------|-----------------0--|


                                                                                   
--5-----7-----9-----|-----------0--2h0----|--0----------0h-2--|--0----------------|
--3-----5-----------|--------3---------3--|-----3-------------|-------3-----0-----|
--------------------|--2h-4---------------|--------2----------|-------------------|
--------------7--5--|--0------------------|-------------------|----------4-----0--|
--------------------|---------------------|--0----------------|--2----------------|
--2--3--4--0--5-----|---------------------|-------------------|-------------------|


                                                                                  
-----------------|----------0--2h0----|--0h-2--5-----2h-5--|--7-----------7h5----|
--0--------------|-------3---------3--|--------------------|-----------5------5--|
-------2---------|----4---------------|--------------------|--------4------------|
------------0----|--------------------|--------------------|-----5---------------|
-----------------|--------------------|--4--------2--0-----|---------------------|
--3--------------|--------------------|--------------------|--0------------------|


                                                                                         
--2-----5----------|--7--------10--10h9h7--|--5h-2-----------5--|--3--------2h3h2h0-----|
-----3-----2-------|-----8-----------------|--------3-----2-----|-----0--------------3--|
--------------2----|--------7--------------|-----------2--------|--------0--------------|
-------------------|-----------------------|--------------------|-----------------------|
-------------------|-----------------------|--------------------|-----------------------|
--2----------------|--7--------------------|--2--------2--------|--0-----------------2--|


                                                                                   
---------------------|--------------------|--0----------------|-------------------|
--0--------3h0-------|--------------------|-----3--2----0-----|-------------------|
-----0---------2--4--|--0-----------2--4--|-------------------|-------2-----0-----|
--------0------------|--------------0-----|----------------2--|----------2-----0--|
---------------------|-----0--2--4--------|--0----------------|-------------------|
--3------------------|--3-----------------|-------------------|--0----------3-----|


                                                                            
---------------|--------------|--------------|--------------|--------------|
---------------|--------------|--------------|--------------|--------------|
--2------------|--------------|--------------|--------------|--------------|
---------------|--------------|--------------|--------------|--------------|
--0------------|--------------|--------------|--------------|--------------|
---------------|--------------|--------------|--------------|--------------|

Check this out...if it works...
Meren Jones
hazardous_dejavu@yahoo.com
Suggest correction
What's this?
You can suggest a correction to this tab. Community and Mods will review your correction and vote to approve or reject it.
comments
We did not receive enough feedback on this tab! Please rate:
print report bad tab
1 2 3 4 5
1 comment total.
0 reply
Grant Rogers 11 wrote on November 7 2013, 07:23 pm

this is an awesome song, and the tab is good too!

guest
You may want to rate the tab now too:
select rating
Please do not post tabs as comments. Select "correction" instead!