Oops, an error
Loading. Please wait.

Joy To The World Tab

version 1
version 1

Intro

Interactive

4,321 views 3 this week
no commentswrite comment
1 2 3 4 5
please rate
add to favorites
launch autoscroll
font size
0
reset
how to read this tab
guitar tuner
Autoscroll
slow
fast
+/-
esc
set tempo
stop
Help us to improve Ultimate-Guitar.com Take our survey!
×
Author
---------------------------------------------------------------------------
                             JOY TO THE WORLD (intro) - Steve Morse
---------------------------------------------------------------------------
Tabbed by: Colton165
Email: gtrfrek@yahoo.com


Time Signature: 4/4
Tuning:Standard
Notation: W-Whole H-Half Q-Quarter E-8th S-16th T-32nd Y-64th
Tempo: Quarter = 105 bpm


 Gtr. I
    Q   E.  S  Q.~~  E    E.  T  T  E.  T  T  H---->W------>W     
e|--15--14--12----------|-----------------------|-------|----------|
B|-------------15~~--13-|-12-h13p12-10-h12p10-8-|--(8)--|--(8)-----|
G|----------------------|-----------------------|-------|----------|
D|----------------------|-----------------------|-------|----------|
A|----------------------|-----------------------|-------|----------|
E|----------------------|-----------------------|-------|----------|
 Gtr. II    W(rest)      H(rest)  Q  E.S          Q.  E E E   E E    W     
e|----------------------|-----------------------|------------------|---------|
B|----------------------|------------------8-7-5|------------------|---------|
G|----------------------|-----------------------|-7---5-4(4)b------|---------|
D|----------------------|-----------------------|-------------7(7)b|-5-------|
A|----------------------|-----------------------|------------------|---------|
E|----------------------|-----------------------|------------------|---------|
                    Bar 3: bend 1/2 step and release; bend full step release

 Gtr I
   All 16th note triplets
  [--3-][-3-][-3-][-3-][-3-][-3-][-3-]H----->E    Rests (Dotted Half + Eighth)
e|-15-10---------10-14-10----------12-10--|-(10)-----------------------------|
B|------------------------13-12-13--------|----------------------------------|
G|------12-11-12--------------------------|----------------------------------|
D|----------------------------------------|----------------------------------|
A|----------------------------------------|----------------------------------|
E|----------------------------------------|----------------------------------|
 
 Gtr II
      Q.       E--->Q.       E-------------->W
e|----------------------------------------|----------------------------------|
B|----------------------------------------|----------------------------------|
G|----------------------------------------|----------------------------------|
D|-------------5---(5)-------7------------|-(7)------------------------------|
A|----2--------3---(3)-------5------------|-(5)------------------------------|
E|----0-----------------------------------|----------------------------------|

 Gtr III                                     Q.(rest)      E E E E E
e|----------------------------------------|----------------------------------|
B|----------------------------------------|----------------------------------|
G|----------------------------------------|----------------------------------|
D|----------------------------------------|------------------4-5-4-----------|
A|----------------------------------------|----------------5-------5---------|
E|----------------------------------------|----------------------------------|

Gtr I
   All 16th note triplets
  [--3-][-3-][-3-][-3-][-3-][-3-][-3-]H----->E    Rests (Dotted Half + Eighth)
e|-15-10---------10-14-10----------12-10--|-(10)-----------------------------|
B|------------------------13-12-13--------|----------------------------------|
G|------12-11-12--------------------------|----------------------------------|
D|----------------------------------------|----------------------------------|
A|----------------------------------------|----------------------------------|
E|----------------------------------------|----------------------------------|

Gtr II
      Q.       E--->Q.       E-------------->Q.        E H
e|----------------------------------------|----------------------------------|
B|----------------------------------------|----------------------------------|
G|----------------------------------------|----------------------------------|
D|----9--------5---(5)-------7------------|-(7)------------------------------|
A|----7--------3---(3)-------5------------|-(5)--------5(5)------------------|
E|----------------------------------------|------------3(3)------------------|

 Gtr III
e|----------------------------------------|----------------------------------|
B|----------------------------------------|----------------------------------|
G|----------------------------------------|----------------------------------|
D|--------------------------4--(4)--------|--5------------(5)----------------|
A|------------------7---------------------|----------------------------------|
E|----------------------------------------|----------------------------------|



| (2)  Tied Note
| /  slide up
| \  slide down
| h  hammer-on
| p  pull-off
| ~  vibrato
| +  harmonic
| x  Mute note
============================================================================
Suggest correction
What's this?
You can suggest a correction to this tab. Community and Mods will review your correction and vote to approve or reject it.
comments
We did not receive enough feedback on this tab! Please rate:
print report bad tab
1 2 3 4 5
guest
You may want to rate the tab now too:
select rating
Please do not post tabs as comments. Select "correction" instead!