Oops, an error
Loading. Please wait.

Runaway Train tab

version 1
version 1

Whole song

Interactive

2,394 views 1 this week
no commentswrite comment
1 2 3 4 5
2 more votes to show rating
add to favorites
×
Save as Personal and add changes to this tab that will be seen only by you. Learn more ›
×
You can save this tab as Personal to edit and correct it or add notes. All changes will be seen only by you. Learn more »
launch autoscroll
font size
0
reset
how to read this tab
guitar tuner
edit
Autoscroll
slow
fast
+/-
esc
set tempo
stop
Author
                         Runaway Train
                          Steve Morse

Clean tone guitar


      S  S  S  S  S  S  S  S     S  S  S  S  S  S  S  S   
e|--12-12-12-12-------14----|--15-15-15-15--------------|
B|--13-14-13-12-------15----|--16-17-16-15----------14S-|
G|--------------14-12----12-|--------------17-14----14S-|
D|--------------------------|--------------------17-----|
A|--------------------------|---------------------------|
E|--------------------------|---------------------------|


     S  S  S  S  S  S  S  S     Q.     E      S  S  S  S  S  S  S  S  
e|---------------------------|------------|--12-12-12-12-------14----|
B|--12----14----15----14-15b-|--L---------|--13-14-13-12-------15----|
G|--12----14----16----14-16b-|--L------x--|--------------14-12----12-|
D|-----17----17----17--------|---------x--|--------------------------|
A|---------------------------|------------|--------------------------|
E|---------------------------|------------|--------------------------|


     S  S  S  S  S  S  S  S      S  S  S  S  S  S  S  S   
e|--15-15-15-15--------------|---------------------------|
B|--16-17-16-15----------14S-|--12----14----15----14-14S-|
G|--------------17-14----14S-|--12----14----16----14-14S-|
D|--------------------17-----|-----17----17----17--------|
A|---------------------------|---------------------------|
E|---------------------------|---------------------------|


     S  S  S  S  S  S  S  S     H           E  Q    E   
e|--------------------------|------------|-------------|
B|--12----12----13----10-10-|------------|-------------|
G|--12----12----14----10-11-|------------|-------------|
D|-----15----15----15-------|--12--------|--L--L-------|
A|--------------------------|------------|-------------|
E|--------------------------|------------|-------------|


    E   S S  Q       H           Q    S E.      S  S E  S E.    
e|--7-----7--L----|--L--------|--L----5------|-----------------|
B|--6b----6b-L----|--L--------|--L------6b---|-----------------|
G|----------------|-----------|--------------|--7p-0-----------|
D|----------------|-----------|--------------|-------7--5-3b---|
A|----------------|-----------|--------------|-----------------|
E|----------------|-----------|--------------|-----------------|


    H           H           S  S S S  S S S S    S S S S S S  S S  
e|-----------|-----------|--------------------|-------------------|
B|-----------|-----------|--------------------|-------------------|
G|-----------|-----------|--------------------|--2---4---2--------|
D|-----------|-----------|-------0------0-3-4-|----4---4---3p-2-0-|
A|--5--------|--L--------|--4S-5---4S-5-------|-------------------|
E|-----------|-----------|--------------------|-------------------|


    S S S S   S S S S    E  Q.        S E  S  S S S S  
e|--------------------|-----3------|------------------|
B|--------------------|-----3------|------------------|
G|------0-------0-----|-----0------|------------------|
D|--4-5---2br-L-------|------------|--3---------------|
A|----------------2-0-|------------|------------3-5-3-|
E|--------------------|--3---------|----1--3S-5-------|


    S S S S S S  E     E  Q.        E  E  E  E     S  S S S  S S S S  
e|------------------|------------|--------------|--------------------|
B|------------------|-----3------|--L-----------|--------------------|
G|----------2-------|-----2------|--L-----------|--------------------|
D|----2-4-2---3p-2--|--0---------|--------------|-------0------0-3-4-|
A|--4---------------|------------|-----0--2--4--|--4S-5---4S-5-------|
E|------------------|------------|--------------|--------------------|


    S S S S S S  S S    S S S S S S S S    S S Q.      
e|-------------------|------------------|-------------|
B|-------------------|------------------|-------------|
G|--2---4---2--------|------3-4-2-0-----|-------------|
D|----4---4---3p-2-0-|--4-5---------2-0-|-------------|
A|-------------------|------------------|--2-0--------|
E|-------------------|------------------|------3------|


    S E  S  S S S S    S S S S S S  E     E  Q.        H         
e|------------------|------------------|------------|-----------|
B|------------------|------------------|-----3------|--L--------|
G|------------------|----------2-------|-----2------|--L--------|
D|--3---------------|----2-4-2---3p-2--|--0---------|-----------|
A|------------3-5-3-|--4---------------|------------|-----------|
E|----1--3S-5-------|------------------|------------|-----------|


    S  S S S S S E     E   E  E   S S    Q.     E      E  E  E  E   
e|-------6---3------|---------3-----2-|--L------1h--|--0-----------|
B|-------------6----|-----------------|-------------|-----3--------|
G|--5b-L---5-----5--|--5b--L--2b----2-|--L------1h--|--0-----------|
D|------------------|-----------------|-------------|-----4--2--0--|
A|------------------|-----------------|-------------|--------------|
E|------------------|-----------------|-------------|--------------|


    S  S S S S S E     E   E  E   S S     H           E  E  E  E   
e|-------6---3------|---------3-----5--|--L--------|--L-----------|
B|-------------6----|------------------|-----------|--------------|
G|--5b-L---5-----5--|--5b--L--2b----4b-|--L--------|--L-----------|
D|------------------|------------------|-----------|--------------|
A|------------------|------------------|-----------|-----0--2--4--|
E|------------------|------------------|-----------|--------------|


    S  S S S  S S S S    S S S S S S  S S    S S S S S S S S  
e|--------------------|-------------------|------------------|
B|--------------------|-------------------|------------------|
G|--------------------|--2---4---2--------|------3-4-2-0-----|
D|-------0------0-3-4-|----4---4---3p-2-0-|--4-5---------2-0-|
A|--4S-5---4S-5-------|-------------------|------------------|
E|--------------------|-------------------|------------------|


    S S Q.        S S S S S S S S    S S S S S S S  S    H         
e|-------------|------------------|-------------------|-----------|
B|-------------|------------------|-------------------|-----------|
G|-------------|----------------0-|-------------------|-----------|
D|-------------|--3-------0-2-3---|--3-2-0-----0------|-----------|
A|--2-0--------|----1-3-4---------|--------3-4---4S-5-|--L--------|
E|------3------|------------------|-------------------|-----------|


    H            S  S  S  S  S  S  S  S      S  S  S  S  S  S  S  S  
e|-----------|--17-12-------14----12-----|-----15-------13----12----|
B|-----------|--------13-14----14----13h-|--12----13-------------15-|
G|-----------|---------------------------|-----------12----12-------|
D|-----------|---------------------------|--------------------------|
A|--L--------|---------------------------|--------------------------|
E|-----------|---------------------------|--------------------------|


     S  S  S  S  S  S  S  S     S  E.   E.   S     S S  S S  S S  S S  
e|--------------------------|-------------------|----8-13-8----8------|
B|--------13-------12-------|---------------11b-|--L--------11---10-8-|
G|--14-------12-------12----|--14-14---14-------|---------------------|
D|-----12-------12-------12-|-----12---11-------|---------------------|
A|--------------------------|-------------------|---------------------|
E|--------------------------|-------------------|---------------------|


    Q    E  S  S     S  S  S  S  S  S  S  S    H         
e|----------------|----10-15-10----10-------|-----------|
B|--L----L--L-13b-|--L----------13----12-10-|--L--------|
G|----------------|-------------------------|-----------|
D|----------------|-------------------------|-----------|
A|----------------|-------------------------|-----------|
E|----------------|-------------------------|-----------|


     S  S  S  S  S  S  S  S      S  S  S  S  S  S  S  S  
e|--17-12-------14----12-----|-----15-------13----12----|
B|--------13-14----14----13h-|--12----13-------------15-|
G|---------------------------|-----------12----12-------|
D|---------------------------|--------------------------|
A|---------------------------|--------------------------|
E|---------------------------|--------------------------|


     S  S  S  S  S  S  S  S     S  E.   E.   S     S S  S S  S S  S S  
e|--------------------------|-------------------|----8-13-8----8------|
B|--------13-------12-------|---------------11b-|--L--------11---10-8-|
G|--14-------12-------12----|--14-14---14-------|---------------------|
D|-----12-------12-------12-|-----12---11-------|---------------------|
A|--------------------------|-------------------|---------------------|
E|--------------------------|-------------------|---------------------|


    Q    E  S  S     S  S  S  S  S  S  S  S    H         
e|----------------|----10-15-10----10-------|-----------|
B|--L----L--L-13b-|--L----------13----12-10-|--L--------|
G|----------------|-------------------------|-----------|
D|----------------|-------------------------|-----------|
A|----------------|-------------------------|-----------|
E|----------------|-------------------------|-----------|


    S   S  S  S S  S S S    S S S S T S. T T T T    S  S S S S S S S  
e|-----10-------8------8-|------7-----5------5---|-----6-----5-----3-|
B|--------10------10-----|--8-----8------7-----5-|-------6-----6-----|
G|--9b-------10------9---|----7-----7------6-----|--5b-----5-----5---|
D|-----------------------|-----------------------|-------------------|
A|-----------------------|-----------------------|-------------------|
E|-----------------------|-----------------------|-------------------|


            |-3-|                                                     
    S S S S S S S E     S   S  S  S S  S S S    S S S S T S. T T T T  
e|------3-----2------|-----10-------8------8-|------7-----5------5---|
B|--5-----3-----3----|--------10------10-----|--8-----8------7-----5-|
G|----4-----2--------|--9b-------10------9---|----7-----7------6-----|
D|----------------0--|-----------------------|-----------------------|
A|-------------------|-----------------------|-----------------------|
E|-------------------|-----------------------|-----------------------|


    S  S S S S S S S    S S E   Q       S  S S S S S E   
e|-----6-----5-----3-|------3S--5----|-------6---3------|
B|-------6-----6-----|--5------------|-------------6----|
G|--5b-----5-----5---|----4-4S--6----|--5b-L---5-----5--|
D|-------------------|---------------|------------------|
A|-------------------|---------------|------------------|
E|-------------------|---------------|------------------|


    E   E  E   S S    Q.     E      E  E  E  E     S  S S S S S E   
e|---------3-----2-|--L------1h--|--0-----------|-------6---3------|
B|-----------------|-------------|-----3--------|-------------6----|
G|--5b--L--2b----2-|--L------1h--|--0-----------|--5b-L---5-----5--|
D|-----------------|-------------|-----4--2--0--|------------------|
A|-----------------|-------------|--------------|------------------|
E|-----------------|-------------|--------------|------------------|


    E   E  E   S S     H           E  E  E  E     S  S S S  S S S S  
e|---------3-----5--|--L--------|--L-----------|--------------------|
B|------------------|-----------|--------------|--------------------|
G|--5b--L--2b----4b-|--L--------|--L-----------|--------------------|
D|------------------|-----------|--------------|-------0------0-3-4-|
A|------------------|-----------|-----0--2--4--|--4S-5---4S-5-------|
E|------------------|-----------|--------------|--------------------|


    S S S S S S  S S    S S S S  S S S S    E  Q.      
e|-------------------|-------------------|-----3------|
B|-------------------|-------------------|-----0------|
G|--2---4---2--------|------0------------|-----0------|
D|----4---4---3p-2-0-|--4-5---2b-L-0-----|------------|
A|-------------------|---------------2-0-|------------|
E|-------------------|-------------------|--3---------|


    S E  S  S S S S    S S S S S S  E     E   E   Q     
e|------------------|------------------|---------------|
B|------------------|------------------|-----10b--L----|
G|------------------|----------2-------|------9b--L----|
D|--3---------------|----2-4-2---------|--0------------|
A|------------3-5-3-|--4---------3p-2--|---------------|
E|----1--3S-5-------|------------------|---------------|


     S  S E  E  E     S  S S S  S S S S    S S S S S S  S S  
e|--10-------------|--------------------|-------------------|
B|-----10-L--7-----|--------------------|-------------------|
G|------9-L--7-----|--------------------|--2---4---2--------|
D|-----------------|-------0------0-3-4-|----4---4---3p-2-0-|
A|-----------------|--4S-5---4S-5-------|-------------------|
E|-----------------|--------------------|-------------------|


    S S S S S S S S    S S Q.        S S S S S S S S  
e|------------------|-------------|------------------|
B|------------------|-------------|------------------|
G|------3-4-2-0-----|-------------|----------------0-|
D|--4-5---------2-0-|-------------|--3-------0-2-3---|
A|------------------|--2-0--------|----1-3-4---------|
E|------------------|------3------|------------------|


    S S S S S S S  S    H           H           E    E  E  E   
e|-------------------|-----------|-----------|--5-------------|
B|-------------------|-----------|-----------|--7br--7--5-----|
G|-------------------|-----------|-----------|----------------|
D|--3-2-0-----0------|-----------|-----------|-------------7--|
A|--------3-4---4S-5-|--L--------|--L--------|----------------|
E|-------------------|-----------|-----------|----------------|


    S  S E  E  E     E.  S E  E     E   S S E  E     E  E  E  E   
e|----------------|--------------|----------------|--------------|
B|-----5----7--5--|--5---7-------|----------------|--------------|
G|--5h-6----7--5--|--5---7-5-----|----------------|--------5--6--|
D|-------7--------|--------------|--4b------------|--------4--5--|
A|----------------|--------------|------7-L-L-----|--------------|
E|----------------|--5--------5--|-------------5--|--L--5--------|


    E  E  E  E     E  E  E   E     E  S S Q       E  E   E  E   
e|--------------|---------------|--------------|------------5--|
B|--5-----------|---------------|--------------|-----7b--L-----|
G|--------7--5--|---------------|--------------|---------------|
D|--------------|---------------|--------------|---------------|
A|--------------|-----5--5b--L--|--7----7-L----|--L------------|
E|-----5--------|--5------------|-----5--------|---------------|


    E  E  E  E     E  E   S  S E     E   E  E  S  S    H         
e|--L-----------|-----------------|-----------------|-----------|
B|-----7--L-----|--5------3p-2----|--2b--0----------|-----------|
G|-----------7--|-----6S-------4--|------0----------|-----------|
D|--------------|-----------------|---------5--5h-6-|--2--------|
A|--------------|-----------------|-----------------|-----------|
E|--------------|-----------------|-----------------|-----------|


    S S S S S S S S    S S S S S S S S    S S S S Q      
e|------------------|------------------|----------------|
B|------------------|------------------|--5-------6b----|
G|------------------|------4-----4-6-4-|----4-5-6-------|
D|----------------4-|--5-6---5-6-------|----------------|
A|----------4-5-7---|------------------|----------------|
E|--4-5-6-7---------|------------------|----------------|


    S S S S S S S S    S S S S S S S S    S S S S S S S S  
e|--5-----5---------|------------------|------------------|
B|----7-8---8-7-6-5-|------------------|------------------|
G|------------------|--8-7-5---7---5-6-|------------------|
D|------------------|--------7---7-----|--7---5-4-----4---|
A|------------------|------------------|----7-----7-6---7-|
E|------------------|------------------|------------------|


    S S S S S S S S    S S S S T T S S S    S  E.   Q     
e|------------------|--------------------|--7-10b---L----|
B|------------------|--------------5---8-|---------------|
G|------------------|------4-----6---8---|---------------|
D|----4-------------|----5---7-7---------|---------------|
A|--6---7-6-5-4-5-6-|--7-----------------|---------------|
E|------------------|--------------------|---------------|


     S  S S S  S S S S    S S S S   S S  S S     S   E.   S   E   S  
e|--10p-7-8-9----------|---------------------|----------------------|
B|------------10-9-8-7-|---------------------|-----------11br-L-----|
G|---------------------|--9-8-7-------9-11-9-|--11br-L-----------11-|
D|---------------------|--------9S-11--------|----------------------|
A|---------------------|---------------------|----------------------|
E|---------------------|---------------------|----------------------|


     S  S  S S S S  S S     S S  S  S S  S  S S     S  S S  S S  S S S  
e|----------------------|-----------------------|----------------------|
B|--10-------8-9--------|-----------------------|----------------------|
G|-----11-12-----9------|--11-9-------9-------9-|----------------------|
D|-----------------11-9-|-------11-10---10-11---|--11-10-9----8----7---|
A|----------------------|-----------------------|----------11---10---9-|
E|----------------------|-----------------------|----------------------|


    S S S S S S S S    S S S S S S S S    S S S S S S S S  
e|------------------|------------------|------------------|
B|------------------|------------------|------------------|
G|------------------|------------------|------------------|
D|--5-6-------------|------------------|--2---4-5-4-3-2---|
A|------7---5-4-----|--0-----2-4-2-5-4-|----5-----------3-|
E|--------7-----7-6-|----3-4-----------|------------------|


    S S S S S S S S    Q     S S S S    S S S S S S S S  
e|------------------|--------5-----5-|------------------|
B|------------------|--8b------8-7---|--8-7-5-----5-7-5-|
G|----------4-5-6-4-|----------------|--------6-7-------|
D|----2-3-4---------|----------------|------------------|
A|--4---------------|----------------|------------------|
E|------------------|----------------|------------------|


    S S S S S S  E     S S S S S S S S    S S S S S S S S  
e|------------------|------------------|------------------|
B|------5---2-------|------------------|------------------|
G|--8-7---6---4b-L--|--2---4---2-4-3-2-|------------------|
D|------------------|----4---5---------|--5-4-3-2---------|
A|------------------|------------------|----------6-2-5-3-|
E|------------------|------------------|------------------|


    S S S S S S S S    S S S S S S S S    S S S S S S S S  
e|------------------|------------------|------------------|
B|------------------|------------------|------------------|
G|------------------|------------------|--------2-----3---|
D|----2-4-2---------|------------------|--2-3-4---3-4---5-|
A|--4-------3-2-----|------------2-3-4-|------------------|
E|--------------5-4-|--3-2-3-4-5-------|------------------|


                                                  |--3--|      
    S S S S S S S S    E   S S S S S S    S S S S S  S  S S S  
e|------------------|------9---7---5---|----------------------|
B|------------5-----|--7b----7---7---7-|--L-5-7---5h-7p-5---5-|
G|--4---4-5-6---6-5-|------------------|--------6---------6---|
D|----6-------------|------------------|----------------------|
A|------------------|------------------|----------------------|
E|------------------|------------------|----------------------|


    S S S S S S S S    S S S S S S S S    S S S S S S S S  
e|------------------|------------------|------------------|
B|--3-5-------------|------------------|------------------|
G|------4-3-2-------|--1---------------|------------------|
D|------------3-4-5-|----2-----2-------|--------------5-0-|
A|------------------|------2-5---5-2-1-|--0-----2-3-4-----|
E|------------------|------------------|----3-4-----------|


     S  S  S S  S  S  S  S     S  S  S  S  S  S  E   
e|-------------------------|-----------14-15-16--9--|
B|-------------------------|--12-12-15----------10--|
G|----------------11----13-|---------------------9--|
D|--------10-9-12----14----|------------------------|
A|-----11------------------|------------------------|
E|--12---------------------|------------------------|


    E   E   S  S S S      S S  S  S S S  S S    S  S S S  S S S  S  
e|------9---9S-7---7S-|---9----9S-7---7------|--5S-3---7------5S-3-|
B|-----10--10S-8---8S-|--10---10S-8---8S-7---|--7S-5---8S-7---7S-5-|
G|------9--------7----|-----9-------7------6-|-------7------6------|
D|--------------------|----------------------|---------------------|
A|--------------------|----------------------|---------------------|
E|--------------------|----------------------|---------------------|


    S S  S S S S E      E   E   S  S S S      S S  S  S S S   S S  
e|----3S-5---5---3S--|------9---9S-7---7S-|---9----9S-7---7S--9---|
B|----5S-7---7---5S--|-----10--10S-8---8S-|--10---10S-8---8S-10---|
G|--4------6---4-----|------9--------7----|-----9-------7-------9-|
D|-------------------|--------------------|-----------------------|
A|-------------------|--------------------|-----------------------|
E|-------------------|--------------------|-----------------------|


     S  S S S  S S S  S    S S  S S S S S S    S  S S  S  S S  S S  
e|---9S-7---7------5S-3-|----7------5---3---|----------------------|
B|--10S-8---8S-7---7S-5-|----8S-7---7---5---|----------------------|
G|--------7------6------|--7------6---4---7-|-------8-------9----9-|
D|----------------------|-------------------|----------------------|
A|----------------------|-------------------|--9-10---10-11---11---|
E|----------------------|-------------------|----------------------|


     Q      S  S  S  S    S  S  S S  S S S S    S S S S S S E   
e|---------------------|---------------------|-----------------|
B|--12-----------------|---------------------|-----------------|
G|--11b----11p-9-------|--9-------9S-L-7-----|-----------------|
D|---------------11-11-|----10-11--------9-8-|--7---5-6--------|
A|---------------------|---------------------|----9-----7-5-7--|
E|---------------------|---------------------|-----------------|


    S  S  S  S  S S  S  S     S  S  S  T   T S  S  S  S  
e|------------------------|--------------------14-16-17-|
B|------------------------|--------12-14S-15-L----------|
G|---------------------11-|-----13----------------------|
D|-------------10-9-12----|--14-------------------------|
A|----------11------------|-----------------------------|
E|--9-10-12---------------|-----------------------------|


     S  S S S  S  S S S    S S S S S S S S     S S  S  S S  S  S  S  
e|--17b-------17S-------|------------------|------------------------|
B|---5------------6-7-8-|--5-----6-----7---|-----8-------9-------12-|
G|------8-7-6--5--------|----7-8---8-9---9-|--10---10-11---11-12----|
D|----------------------|------------------|------------------------|
A|----------------------|------------------|------------------------|
E|----------------------|------------------|------------------------|


     S  S  S  S  S  S  S  S     S  S S S  S  S S S    S S S S S S S S  
e|-----------------12-14-16-|--17b-------17S-------|------------------|
B|--------12-14-15----------|---5------------------|--5-----6-----7---|
G|--14-15-------------------|------8-7-6--5--6-7-8-|----7-8---8-9---9-|
D|--------------------------|----------------------|------------------|
A|--------------------------|----------------------|------------------|
E|--------------------------|----------------------|------------------|


     S S  S  S S  S  S  S     S  S  S  S  S  S  S  S  
e|------------------------|-----------------12-14-16-|
B|-----8-------9-------12-|--------12-14-15----------|
G|--10---10-11---11-12----|--14-15-------------------|
D|------------------------|--------------------------|
A|------------------------|--------------------------|
E|------------------------|--------------------------|


     S  S  S  S  S  S  S  S      S  S  S  S  S  S  S  S  
e|--17-12-------14----12-----|-----15-------13----12----|
B|--------13-14----14----13h-|--12----13-------------15-|
G|---------------------------|-----------12----12-------|
D|---------------------------|--------------------------|
A|---------------------------|--------------------------|
E|---------------------------|--------------------------|


     S  S  S  S  S  S  S  S     S  E.   E.   S     S S  S S  S S  S S  
e|--------------------------|-------------------|----8-13-8----8------|
B|--------13-------12-------|---------------11b-|--L--------11---10-8-|
G|--14-------12-------12----|--14-14---14-------|---------------------|
D|-----12-------12-------12-|-----12---11-------|---------------------|
A|--------------------------|-------------------|---------------------|
E|--------------------------|-------------------|---------------------|


    Q    E  S  S     S  S  S  S  S  S  S  S    H         
e|----------------|----10-15-10----10-------|-----------|
B|--L----L--L-13b-|--L----------13----12-10-|--L--------|
G|----------------|-------------------------|-----------|
D|----------------|-------------------------|-----------|
A|----------------|-------------------------|-----------|
E|----------------|-------------------------|-----------|


     S  S  S  S  S  S  S  S      S  S  S  S  S  S  S  S  
e|--17-12-------14----12-----|-----15-------13----12----|
B|--------13-14----14----13h-|--12----13-------------15-|
G|---------------------------|-----------12----12-------|
D|---------------------------|--------------------------|
A|---------------------------|--------------------------|
E|---------------------------|--------------------------|


     S  S  S  S  S  S  S  S     S  E.   E.   S     S S  S S  S S  S S  
e|--------------------------|-------------------|----8-13-8----8------|
B|--------13-------12-------|---------------11b-|--L--------11---10-8-|
G|--14-------12-------12----|--14-14---14-------|---------------------|
D|-----12-------12-------12-|-----12---11-------|---------------------|
A|--------------------------|-------------------|---------------------|
E|--------------------------|-------------------|---------------------|


    Q    E  S  S     S  S  S  S  S  S  S  S    H         
e|----------------|----10-15-10----10-------|-----------|
B|--L----L--L-13b-|--L----------13----12-10-|--L--------|
G|----------------|-------------------------|-----------|
D|----------------|-------------------------|-----------|
A|----------------|-------------------------|-----------|
E|----------------|-------------------------|-----------|


    S   S  S  S S  S S S    S S S S T S. T T T T    S  S S S S S S S  
e|-----10-------8------8-|------7-----5------5---|-----6-----5-----3-|
B|--------10------10-----|--8-----8------7-----5-|-------6-----6-----|
G|--9b-------10------9---|----7-----7------6-----|--5b-----5-----5---|
D|-----------------------|-----------------------|-------------------|
A|-----------------------|-----------------------|-------------------|
E|-----------------------|-----------------------|-------------------|


            |-3-|                                                     
    S S S S S S S E     S   S  S  S S  S S S    S S S S T S. T T T T  
e|------3-----2------|-----10-------8------8-|------7-----5------5---|
B|--5-----3-----3----|--------10------10-----|--8-----8------7-----5-|
G|----4-----2--------|--9b-------10------9---|----7-----7------6-----|
D|----------------0--|-----------------------|-----------------------|
A|-------------------|-----------------------|-----------------------|
E|-------------------|-----------------------|-----------------------|


    S  S S S S S S S    S S E   Q       S  S S S S S E   
e|-----6-----5-----3-|------3S--5----|-------6---3------|
B|-------6-----6-----|--5------------|-------------6----|
G|--5b-----5-----5---|----4-4S--6----|--5b-L---5-----5--|
D|-------------------|---------------|------------------|
A|-------------------|---------------|------------------|
E|-------------------|---------------|------------------|


    E   E  E   S S    Q.     E      E  E  E  E     S  S S S S S E   
e|---------3-----2-|--L------1h--|--0-----------|-------6---3------|
B|-----------------|-------------|-----3--------|-------------6----|
G|--5b--L--2b----2-|--L------1h--|--0-----------|--5b-L---5-----5--|
D|-----------------|-------------|-----4--2--0--|------------------|
A|-----------------|-------------|--------------|------------------|
E|-----------------|-------------|--------------|------------------|


    E   E  E   S S     H           E  E  E  E     S  S S S  S S S S  
e|---------3-----5--|--L--------|--L-----------|--------------------|
B|------------------|-----------|--------------|--------------------|
G|--5b--L--2b----4b-|--L--------|--L-----------|--------------------|
D|------------------|-----------|--------------|-------0------0-3-4-|
A|------------------|-----------|-----0--2--4--|--4S-5---4S-5-------|
E|------------------|-----------|--------------|--------------------|


    S S S S S S  S S    S S S S  S S S S    E  Q.      
e|-------------------|-------------------|-----3------|
B|-------------------|-------------------|-----0------|
G|--2---4---2--------|------0------------|-----0------|
D|----4---4---3p-2-0-|--4-5---2b-L-0-----|------------|
A|-------------------|---------------2-0-|------------|
E|-------------------|-------------------|--3---------|


    S E  S  S S S S    S S S S S S  E     E   E   Q     
e|------------------|------------------|---------------|
B|------------------|------------------|-----10b--L----|
G|------------------|----------2-------|------9b--L----|
D|--3---------------|----2-4-2---------|--0------------|
A|------------3-5-3-|--4---------3p-2--|---------------|
E|----1--3S-5-------|------------------|---------------|


     S  S E  E  E     S  S S S  S S S S    S S S S S S  S S  
e|--10-------------|--------------------|-------------------|
B|-----10-L--7-----|--------------------|-------------------|
G|------9-L--7-----|--------------------|--2---4---2--------|
D|-----------------|-------0------0-3-4-|----4---4---3p-2-0-|
A|-----------------|--4S-5---4S-5-------|-------------------|
E|-----------------|--------------------|-------------------|


    S S S S S S S S    S S Q.        S S S S S S S S  
e|------------------|-------------|------------------|
B|------------------|-------------|------------------|
G|------3-4-2-0-----|-------------|----------------0-|
D|--4-5---------2-0-|-------------|--3-------0-2-3---|
A|------------------|--2-0--------|----1-3-4---------|
E|------------------|------3------|------------------|


    S S S S S S S  S    S S S S S S S S    S  S S S  S S  S S   
e|-------------------|--5-5-5-5-----7---|--8--8-8-8------------|
B|-------------------|--6-7-6-5-----8---|--9-10-5-8---------7S-|
G|-------------------|----------7-5---5-|-----------10-7----7S-|
D|--3-2-0-----0------|------------------|----------------10----|
A|--------3-4---4S-5-|------------------|----------------------|
E|-------------------|------------------|----------------------|


    S  S S  S S  S S S     S S S S S S S S    S S S S S S S S  
e|----------------------|------------------|------------------|
B|--5----7----8----7-7S-|--5---5---6---3-3-|--6-5-3-----------|
G|--5----7----9----7-7S-|--5---5---7---3-4-|--------3-2-0-----|
D|----10---10---10------|----8---8---8-----|--------------2-3-|
A|----------------------|------------------|------------------|
E|----------------------|------------------|------------------|

                          <         
    S S S S S S S S    E  E  Q      
e|------------------|-----3-------||
B|------------------|-----0-------||
G|--0---------------|-----0-------||
D|--------0-2-------|-------------||
A|----3-4-----1-0---|-------------||
E|----------------3-|--L----------||



Duration Legend
---------------
W - whole
H - half
Q - quarter
E - 8th
S - 16th
T - 32nd
X - 64th
. - note dotted
|-n-|  - n-tuplets


Tablature Legend
----------------
L - tied note
x - dead note
g - grace note
(n) - ghost note
> - accentuded note
NH - natural harmonic
AH - artificial harmonic
TH - tapped harmonic
SH - semi harmonic
PH - pitch harmonic
h - hammer on
p - pull off
b - bend
br - bendRelease
pb - preBend
pbr - preBendRelease
brb - bendReleaseBend
\n/ - tremolo bar dip
\n - tremolo bar dive
-/n - tremolo bar Release up
/n\ - tremolo bar inverted dip
/n - tremolo bar return
-\n - tremolo bar Release down
S - shift slide
s - legato slide
/ -  slide into from below or out of upwards
\ -  slide into from above or out of downwards
~ - vibrato
W - wide vibrato
tr - trill
TP - tremolo picking
T - tapping
S - slap
P - pop
< - fade in
^ - brush up
v - brush down

            
            
Suggest correction
Creating personal tab
Creating personal tab
You can edit any tab online and save it as your Personal.

You can edit, replace or remove any tab part or add personal notes – all changes will be seen only by you.

Personal tabs can be accessed anytime from any device, even offline.
Learn more »
Give kudos to tab author, rate the tab!
1 2 3 4 5
comments
print report bad tab
guest
You may want to rate the tab now too:
select rating
Wanna post a correction for this tab? Suggest correction