Oops, an error
Loading. Please wait.

Hark The Harold Angles Sing Tab

1,063 views 6 this week
1 commentread comment
1 2 3 4 5
excellent!
x 2
add to favorites
launch autoscroll
font size
0
reset
how to read this tab
guitar tuner
Tab Pro tools
  • play this tab
  • loop segment
  • change instrument
  • show fretboard
  • metronome
Autoscroll
slow
fast
+/-
esc
set tempo
stop
Contributor
Song: Hark! The Herald Angels Sing
Artist: Steve Ouimette


All right I looked at the other tab for this song. It was fairly acurate for the most
part. All I have done is made the main riff a little better by adding PM's in here and
there. Made it on beat and made a few guitar 2 part. hope you like it. and please tell 
me corections, or if anyone gets the solos down feel to tell me what they are. The reason for
the tunning being down one whole step is because its easier to play like this. But that 
does not mean its right.


Guitars I & II (D G C F A D)

  Intro.

  Guitar I

   Q  Q  H         +W                +Q  E E H           +W
||---------------|-----------------|-------------------|-----------------||
||o--------------|-----------------|-------------------|----------------o||
||---------------|-----------------|-------------------|-----------------||
||-5-------------|-----------------|---------5---------|-(5)-------------||
||o---3----------|-----------------|-------3-----------|----------------o||
||-------3-------|-(3)-------------|-(3)-3-------------|-----------------||

SORRY ABOUT NO SOLOS

  Verse.

    E  E  E  E  E  E  Q      E  E  E  E  S S E  Q
||-------------------------|-------------------------|
||o------------------------|-------------------------|
||-------------------------|-------------------------|
||-----0--5--0--5--0--5----|-0--4s=5--0--5s9-0--9----|
||o-0----------------------|-------------------------|
||-------------------------|-------------------------|
    .................        .        .      .

  1.________________________________________________________
    E  E  E  E  E  E  Q         E  E  E  E  E  E  E    +E   |
|----------------------------|------------------------------||
|----------------------------|-----------------------------o||
|--------7-----7-----7-------|----5=p4-----2-----4----(4)\--||
|--7--0-----0-----0----------|-0-------0------0-------------||
|----------------------------|-----------------------------o||
|----------------------------|------------------------------||
      .     .     .            .       .      .
  2._________________________________________________________
   E  E  E  E  E  E  Q         E  E  E  E  E  E  E  E        |
|----------------------------|------------------------------||
|----------------------------|-----------------------------o||
|--------7-----2-----2-------|----2-------------------------||
|--7--0-----0-----0----------|-0-----4--0--2--0--0--0-------||
|----------------------------|-----------------------------o||
|----------------------------|------------------------------||
      .     .     .            .        .     .

 Pre Chorus.

    E  E  E  E  Q    S S S  S  S  S   Q     Q     Q     Q
||---------------------------------|-------------------------||
||o------------------7h8h9h10s11s12|s13----12----12----10---o||
||--7--7--7--7--7------------------|-------------------------||
||--x--x--x--x--x------------------|-------------------------||
||o-5--5--5--5--5------------------|------------------------o||
||---------------------------------|-------------------------||

  Chorus

    Q.       E  Q     Q       Q     Q     H
||-------------------------|-------------------------|
||-17-------17-17----------|-------------------------|
||-------------------19----|-17----16----17----------|
||-------------------------|-------------------------|
||-------------------------|-------------------------|
||-------------------------|-------------------------|
 |
 |  Q.       E  Q     Q       Q     Q     H
||-------------------------|-------------------------|
||--5--------5--5----------|-------------------------|
||--------------------7----|--5-----4-----5----------|
||-------------------------|-------------------------|
||-------------------------|-------------------------|
||-------------------------|-------------------------|

   Q     E  E  Q.      E     Q     Q     H
|-------------------------|-------------------------|
|-------------------------|-------------------------|
|-14----16-17-19----------|-------14----16----------|
|---------------------17--|-17----------------------|
|-------------------------|-------------------------|
|-------------------------|-------------------------|
|
|  Q     E  E  Q.      E     Q     Q     H
|-------------------------|-------------------------|
|-------------------------|-------------------------|
|--------4--5--7----------|--------------4----------|
|--7-------------------5--|--5-----7----------------|
|-------------------------|-------------------------|
|-------------------------|-------------------------|

   Q.       E  Q     Q       Q     Q     H
|-------------------------|-------------------------|
|/17-------17-17----------|-------------------------|
|-------------------19----|-17----16----17----------|
|-------------------------|-------------------------|
|-------------------------|-------------------------|
|-------------------------|-------------------------|
|
|  Q.       E  Q     Q       Q     Q     H
|-------------------------|-------------------------|
|--5--------5--5----------|-------------------------|
|--------------------7----|--5-----4-----5----------|
|-------------------------|-------------------------|
|-------------------------|-------------------------|
|-------------------------|-------------------------|

   Q     E  E  Q.      E     H          H
|-------------------------|-------------------------|
|-------------------------|-------------------------|
|-14----16-17-19----------|------------14-----------|
|---------------------17--|-17----------------------|
|-------------------------|-------------------------|
|-------------------------|-------------------------|
|
|  Q     E  E  Q.      E     H           H
|-------------------------|-------------------------|
|-------------------------|-------------------------|
|--------4--5--7----------|-------------------------|
|--7-------------------5--|--5-----------7----------|
|-------------------------|-------------------------|
|-------------------------|-------------------------|

  Bridge.

             PLAY THESE 2 MEASURES 2 TIMES
   E  E  E E  E  E  S S S S 2xE   Q.     E  E  E  E  E
||--------------------------||-------------------------||
||o------------------------o||------------------------o||
||--------------------------||-------------------------||
||--------------------------||----5--------------------||
||o5--5----5--5--5--5-5-5-5o||-5--3------5--5--5-----5o||
||-3--3----3--3--3--3-3-3-3-||-3---------3--3--3-----3-||
  ...............................       ...............

  Verse 2.

    E  E  E  E  E  E  E  S S   E  E  E  E  S S E  Q.
||---------------------------|-------------------------|
||o--------------------------|-------------------------|
||---------------------------|-------------------------|
||-----0--5--0--5--0--5--0-0-|-0--4s=5--0--5s9-0--5s9--|
||o-0------------------------|-------------------------|
||---------------------------|-------------------------|
      ...   ...   ...   .........       .      .

  1.______________________________________________________
   E  E  E  E  E  E  E  S S   E  E  E  E  E  E  E    +E   |
|---------------------------|------------------------------||
|---------------------------|-----------------------------o||
|--------7-----7-----7------|----5=p4-----2-----4----(4)\--||
|--7--0-----0-----0-----0-0-|-0-------0------0-------------||
|---------------------------|-----------------------------o||
|---------------------------|------------------------------||
      .     .     .    .........      .      .

  2.______________________________________________________
   E  E  E  E  E  E  Q        E  E  E  E  E  E  E  E      |
|---------------------------|------------------------------||
|---------------------------|-----------------------------o||
|--------7-----2-----2------|----2-------------------------||
|--7--0-----0-----0-----0-0-|-0-----4--0--2--0--0--0-------||
|---------------------------|-----------------------------o||
|---------------------------|------------------------------||
     ...    .     .     ........       ........

  Pre Chorus 2.

  E  E  E  E  Q.          E    Q    Q     Q     Q
|---------------------------|-------------------------|
|------------------------10s|s13----12----12----10----|
|-7--7--7--7--7-------------|-------------------------|
|-x--x--x--x--x-------------|-------------------------|
|-5--5--5--5--5-------------|-------------------------|
|---------------------------|-------------------------|

  S S S S S S S S Q.      E    Q    Q     Q     Q
|---------------------------|-------------------------|
|------------------------10s|s13----12----12----10----|
|-7-7-7-7-7-7-7-7-7---------|-------------------------|
|-x-x-x-x-x-x-x-x-x---------|-------------------------|
|-5-5-5-5-5-5-5-5-5---------|-------------------------|
|---------------------------|-------------------------|

  Chorus 2.

    E  E  E  E  Q.    E       Q     Q     H
||-------------------------|-------------------------|
||-17----17----17----------|-------------------------|
||----19----19-------19----|-17----16----17----------|
||-------------------------|-------------------------|
||-------------------------|-------------------------|
||-------------------------|-------------------------|
 |
 |  E  E  E  E  Q.    E       Q     Q     H
||-------------------------|-------------------------|
||--5-----5-----5----------|-------------------------|
||-----7-----7--------7----|--5-----4-----5----------|
||-------------------------|-------------------------|
||-------------------------|-------------------------|
||-------------------------|-------------------------|

   Q     E  E  Q.      E     Q     Q     H
|-------------------------|-------------------------|
|-------------------------|-------------------------|
|-14----16-17-19----------|-------14----16----------|
|---------------------17--|-17----------------------|
|-------------------------|-------------------------|
|-------------------------|-------------------------|
|
|  Q     E  E  Q.      E     Q     Q     H
|-------------------------|-------------------------|
|-------------------------|-------------------------|
|--------4--5--7----------|--------------4----------|
|--7-------------------5--|--5-----7----------------|
|-------------------------|-------------------------|
|-------------------------|-------------------------|

   E  E  E  E  Q.    E       Q     Q     H
|-------------------------|-------------------------|
|-17----17----17----------|-------------------------|
|----19----19-------19----|-17----16----17----------|
|-------------------------|-------------------------|
|-------------------------|-------------------------|
|-------------------------|-------------------------|
|
|  E  E  E  E  Q.    E       Q     Q     H
|-------------------------|-------------------------|
|--5-----5-----5----------|-------------------------|
|-----7-----7--------7----|--5-----4-----5----------|
|-------------------------|-------------------------|
|-------------------------|-------------------------|
|-------------------------|-------------------------|

   Q     E  E  Q.      E     H          H
|-------------------------|-------------------------|
|-------------------------|-------------------------|
|-14----16-17-19----------|------------14-----------|
|---------------------17--|-17----------------------|
|-------------------------|-------------------------|
|-------------------------|-------------------------|
|
|  Q     E  E  Q.      E     H           H
|-------------------------|-------------------------|
|-------------------------|-------------------------|
|--------4--5--7----------|-------------------------|
|--7-------------------5--|--5-----------7----------|
|-------------------------|-------------------------|
|-------------------------|-------------------------|

I'm very sorry I don't know any of the solos but if
anyone gets them down please put them on this site.
Also use my tab to make a better one.
comments
We did not receive enough feedback on this tab! Please rate:
print report bad tab
1 2 3 4 5
1 comment total.
0 reply
Marcus 90 wrote on September 7 2011, 03:29 pm

thanks for posting this , don't worry about not including any solo's. We all know they are hard as f**k to learn anyway.

I want to post or [tab]
guest
You may want to rate the tab now too:
select rating
Please do not post tabs as comments. Select "correction" instead!