Oops, an error
Loading. Please wait.

We Three Kings Tab

version 2
version 2

Whole song

Interactive

18,676 views 15 this week
2 commentsread comments
1 2 3 4 5
accurate
x 10
add to favorites
launch autoscroll
font size
0
reset
how to read this tab
guitar tuner
Autoscroll
slow
fast
+/-
esc
set tempo
stop
Help us to improve Ultimate-Guitar.com Take our survey!
×
Contributor
Difficulty
advanced
-------------------------------------------------------------------------------
			     We Three Kings - Steve Ouimette
-------------------------------------------------------------------------------
Tabbed by: Sean Cheren
Email:SeanCheren@gmail.com

Tuning:Standard E

We Three Kings Guitar Hero 3 version!

                      bend then pluck
e|13^(14)-12-----------------------------------------------------------------|
B|-----------15-12-14-^(15)-14-11^(12)----14^(15)-16^(17)-18^(19)-20^(22)-20-|
G|-------------------------------------X2------------------------------------|
D|---------------------------------------------------------------------------|
A|---------------------------------------------------------------------------|
E|---------------------------------------------------------------------------|
                               FAST PART!!!
e|---------------------------------------------------------------------------|
B|19-17-17^(19)-17-15~~14----------------------------------------------------|
G|--------------------------------9-11-12-11-9-------------------9-11-12-11-9|
D|------------------------9-11-12--------------12-11-9\8/9-11-12-------------|
A|---------------------------------------------------------------------------|
E|---------------------------------------------------------------------------|

e|---------------------------------------------------------------------------|
B|---------------------------------------------------------------------------|
G|------------------9-11-12-11-9-------------------9-11-12-11-9--------------|
D|12-11-9\8/9-11-12--------------12-11-9\8/9-11-12--------------12~~~~~------|
A|---------------------------------------------------------------------------|
E|---------------------------------------------------------------------------|

                    LONG RUN WITH OCTAVE PEDAL ON!!!

e|---------------------------------------------------------------------------|
B|---------------------------------------------------------------------------|
G|-------------------------------------------9-11-12----------11-12-14-------|
D|--------------------------9-11-12--9-11-12---------11-12-14----------------|
A|---------9-11-12--9-11-12--------------------------------------------------|
E|-9-11-12-------------------------------------------------------------------|

	            OCTAVE OFF AND FINISH LONG RUN!!
e|-----------------------------------------------------------------12-14-15--|
B|----------------------------------------------12-14-15--12-14-15-----------|
G|---------12-14-15----------11-12-14--11-12-14------------------------------|
D|12-14-15----------11-12-14-------------------------------------------------|
A|---------------------------------------------------------------------------|
E|---------------------------------------------------------------------------|


                                                               bend pluck and relase bend
e|---------14-15-17----------15-17-18-18^(19)-18-----------------------------|
B|14-15-17----------15-17-18---------------------18^(19)-15-17-^(17)-17^(19)-|
G|---------------------------------------------------------------------------|
D|---------------------------------------------------------------------------|
A|---------------------------------------------------------------------------|
E|---------------------------------------------------------------------------|

e|18^(19)-18---------------------20^(22)-------------------------------------|
B|-----------18^(19)-15-17-^(17)---------15~~17~~15-17-17^(19)-20^(22)-20----|
G|---------------------------------------------------------------------------|
D|---------------------------------------------------------------------------|
A|---------------------------------------------------------------------------|
E|---------------------------------------------------------------------------|

                                   heavy vibrato
e|---------------------------------------------------------------------------|
B|19-17-17^(19)-17-15~~14--------------15-15-15----15~-12-12t15-X2-----------|
G|------------------------14^(16)-14~~-----------14--------------------------|
D|---------------------------------------------------------------------------|
A|---------------------------------------------------------------------------|
E|---------------------------------------------------------------------------|


e|---------------------------------------------------------------------------|
B|-15```-17```-19```-19^(20)```-19```-17``-20-----------15----17^(19)--------|
G|-------------------------------------------------14~~----14----------------|
D|--------------------------------------------12~~---------------------------|
A|---------------------------------------------------------------------------|
E|---------------------------------------------------------------------------|


e|---------------------------------------------------------------------------|
B|---------------------------------------------------------------------------|
G|--------9-11-12-11-9-------------------9-11-12-11-9------------------------|
D|9-11-12--------------12-11-9\8/9-11-12-------------------------------------|
A|---------------------------------------------------------------------------|
E|---------------------------------------------------------------------------|


e|---------------------------------------------------------------------------|
B|---------------------------------------------------------------------------|
G|------------------9-11-12-11-9-------------------9-11-12-11-9--------------|
D|12-11-9\8/9-11-12--------------12-11-9\8/9-11-12---------------------------|
A|---------------------------------------------------------------------------|
E|---------------------------------------------------------------------------|

SLIDE THAT UP3 FRETS SO ITS 12 14 15 instead of 9 11 12 and play same pattern...


e|---------------------------------------------------------------------------|
B|---------------------------------------------------------------------------|
G|---------------------------------------------------------------------------|
D|-9-9-9/11-11-11\7-7/-0t2---------------------------------------------------|
A|---------------------------------------------------------------------------|
E|-------------------------0-2-3-3-5-6-7-7-7-7-7-7-7-7-7-3333333322222222----|


THIS CONCLUDES PART 1 THE SOLO AND PART 2 IS COMING NEXT WEEK THERE IS ALSO A TUTORIAL 
DETAILED EXPLANATION ON YOUTUBE BY ME!

I AM SDZAKKMF WATCH MY VIDEOS!!!
http://www.youtube.com/watch?v=KWAEi9MzMX0
http://www.youtube.com/watch?v=BtCL68f-DrU&feature=user

| /  slide up
| \  slide down
| h  hammer-on
| p  pull-off
| ~  vibrato
| +  harmonic
| x  Mute note
| ^  Bend
| ^(x) Bend to ghost note
| (x)t(y) trill x and y
|``` Temelo pick (FAST!!!)
===============================================================================
comments
print report bad tab
2 comments total.
-1 reply
Ryees 117 wrote on January 7 2009, 01:11 am

... Epic, epic failure.

0 reply
Sylthaya 11 wrote on October 15 2015, 12:24 am

dont listen to ryees if you look at the video steve uploaded like 5 years ago this is how he plays it

I want to post or [tab]
guest
You may want to rate the tab now too:
select rating
Please do not post tabs as comments. Select "correction" instead!