Oops, an error
Loading. Please wait.

Pet The Hot Kitty Tab

2,634 views 1 this week
no commentswrite comment
1 2 3 4 5
please rate
add to favorites
launch autoscroll
font size
0
reset
how to read this tab
guitar tuner
Tab Pro tools
  • play this tab
  • loop segment
  • change instrument
  • show fretboard
  • metronome
×
Best way to learn
"Pet The Hot Kitty"
Autoscroll
slow
fast
+/-
esc
set tempo
stop
Contributor
Pet The Hot Kitty

Steve Stevens Atomic Playboys (1989)
Tabbed by peatemark@hotmail.com

Tune down half a step (E flat)

This is from Steve Stevens Solo project - It kicks ass! 

Notation
~~   = vibrato
(b)    = bend

Intro
Riff 1
Verse1					 Verse2 & 3
	p.m			 
|-----------------|		|---5-------------|	
|-----------------|		|---5-------------|	
|-2-2----------2--|		|-2-2----------2--|	
|-2-2----------2--|	x 8	|-2-2----------2--|	
|-0-0-00-50-30-0--|		|-0---00-50-30-0--|	
|-----------------|		|-----------------|	

Just check out that kitty walking down the road

Verse1 (w/riff 1)
She's a blue eyed kitty a naughty daughter, 
Man she's got a walk on here that's gotta be seen.  
Such a high class missy	 a trouser arouser, 
You know I'm talking about a poor mans dream'

(riff 2)
|---------------|----------------|------------------|--------------|
|-3--3----------|-3--3-----------|--3--3------------|--------------|
|-2--2----------|-2--2-----------|--2--2------------|--5\4-2-5\4-2-|
|-0--0----------|-0--0-----------|--0--0------------|--5\4-2-5\4-2-|
|-0—-0---3-2-0--|-0--0---3-2-0---|--0--0--3-2-0-----|--------------|
|---------------|----------------|------------------|--------------|
She got her diamonds She got me climbing climbing way on up the tree

(w/riff1)
Shes says 'time to get romantic'
And now you've been warned
Don't be playing cat and mouse with a tiger like me

Bridge
|--------------------|-----------------|---------------|------------------|
|--------------------|-----------------|---------------|------------------|
|-5~~---5-4-5--5/7~~-|--------5--------|---2---2----xx-|-2---2------------|
|-5~~---5-4-5--5/7~~-|--------5--------|---2---2----xx-|-2---2------------|
|-3~~---3—2-3—-3/5~~-|--------3---2----|---0---0----xx-|-0---0--3-2-0-----|
|--------------------|---------------3-|-----3----3----|---3--------------|
Shes got a 7 year itch 	And now shes starting to scratch

|----------------|--------------|
|----------------|--------------|
|-5~~------------|-7~~---5--7-8-|
|-5~~------------|-7~~---5--7-8-|
|-3~~---—--2~~---|-5~~---3--5-6-|
|-------------3~~|--------------| 
Before her back goes    up  boy  you gotta     

Chorus
|-------------------|----|----|----|-------------------|----------------|
|-------------------|----|----|----|-------------------|----------------|
|-9----9---9-—5/7/8-|----|----|----|-5-----------------|-2-2------------|
|-9----9---9-—5/7/8-|----|----|----|-5-----------------|-2-2------------|
|-7----7---7-—3/5/6-|----|----|----|-3--2-0---3-2-0----|-0-0-00-50-30---|
|----00---0---------|----|----|----|--------3----------|----------------|
Pet the hot kitty (pet the hot kitty) Pet the hot kitty till she purrs


Verse2 ( w/riff1)
Well shes driving in his bently
Got the radio blasting
A hot steamy hight got the windows rolled down
Shes checking out her hemline
Crazy little feline
You know shes calling every tomcat in town

(w/riff2)
She got her diamonds She got me climbing
She got some time and were climbing till the end of the race
Girls got to deal with the heat
Deal with the heat

Shes got a 7 year itch & boy
You better pet the hot kitty (pet the hot kitty)
Pet the hot kitty ( hot hot kitty)
Pet the hot kitty till she purrs

Instrumental bit
|------5----33----|-3--3---32---------|------5---33------|	
|------5----33----|-3--3---33---------|------5---33------|	
|-2---------------|--------22---------|-2-2-----------2--|	
|-2---------------|-------------------|-2-2-----------2--|	
|-0--0---0-----00-|--0--0-------------|-0-0----0------0--|	
|-----------------|-------------------|------------------|	

1st Solo
|--------------8-------------------------|-17----17--17--17—-17--17--17---|
|--8(b2)~~~~~~~-5-8-5----5-8-5-----------|-20(b2)--20--20--20--20--20--20-|
|--------------------7(b2)----7(b2)-5~~~~|--------------------------------|
|----------------------------------------|--------------------------------|
|----------------------------------------|--------------------------------|
|----------------------------------------|--------------------------------|

|----------------------|-----------------|
|-20-----20------------|-----------------|
|-19(b2)-19--19-17~~~~~|--5--------------| SORRY - HAVENT GOT ROUND TO THE 
|----------------------|-----757~~~~-----|  REST OF THE SOLO!
|----------------------|-----------------|
|----------------------|-----------------|

Shes got that 7 year itch 
And now shes starting to scratch (aaw scratch that thing)
If she don't get what she wants you'll get her claws in your back
Shes got her claws in my back
You know the pain that you feel so you'd better 

You know it s makes me feel so good when you stroke me and stuff

Change 
|----------10-------10-|----------10-------10-|---------10--------10----|
|-10~~~~14---10--14----|-------14-------14----|------14----10--14-------|
|----------------------|-12~~~~------12-------|-11~~~-------------------|
|----------------------|----------------------|-------------------------|
|----------------------|----------------------|-------------------------|
|----------------------|----------------------|-------------------------|
Baby				Baby etc...

|----------10-------10-|----------10-------10-|---------10--------10----|
|-10~~~~14---10--14----|-------14-------14----|------14----10--14-------|
|----------------------|-12~~~~------12-------|-11~~~-------------------|
|----------------------|----------------------|-------------------------|
|----------------------|----------------------|-------------------------|
|----------------------|----------------------|-------------------------|


Solo-outro
|---------------|------------|------------|---------------------------|
|-20(b)20(b)~~~~|2020(b)~~~~~|2020(b)~~~--|20(b)~~~20-17--------------|
|---------------|------------|------------|--------------19-17--------|
|---------------|------------|------------|--------------------19-----|
|---------------|------------|------------|---------------------------|
|---------------|------------|------------|---------------------------|

|---------------------|---------------------|
|---------------------|---------------------|
|-19-18-----19-18-----|-19-16-----19-18-----|
|------19~~------19~~-|------17~~------17~~~|
|---------------------|---------------------|
|---------------------|---------------------|
comments
We did not receive enough feedback on this tab! Please rate:
print report bad tab
1 2 3 4 5
I want to post or [tab]
guest
You may want to rate the tab now too:
select rating
Please do not post tabs as comments. Select "correction" instead!