Oops, an error
Loading. Please wait.

I Want To Be A Clone chords

120 views 1 this week
no commentswrite comment
1 2 3 4 5
3 more votes to show rating
add to favorites
×
Save as Personal and add changes to this tab that will be seen only by you. Learn more ›
×
You can save this tab as Personal to edit and correct it or add notes. All changes will be seen only by you. Learn more »
launch autoscroll
font size
0
reset
transpose
0
reset
display chords
guitar tuner
edit
Autoscroll
slow
fast
+/-
esc
set tempo
stop
Author
Difficulty
Strumming
There is no strumming pattern for this song yet. and get +5 IQ
I Want To Be A Clone 
by Steve Taylor

Contact me at:
joshua1vs89@icloud.com

My advice to you:
Don't be a clone!

Intro:

e|-------------------|
B|-------------------|
G|-------------------|
D|-------------------|
A|----5-6-7--8-6-5---|
E|---6-6-6--6-6-6----|

e|-------------------|
B|-------------------|
G|-------------------|
D|-------------------|
A|---5-6-777-8-6-7---|
E|---6-6-6---6-6-6---|

e|---------------|
B|---------------|
G|---10b-8b-7b---|
D|---------------|
A|---------------|
E|---------------|

Verse 1:

    Bb 
I'd gone through 
        F
so much other stuff
     Ab
That walking down 
    Eb
the aisle was tough
    Gb
But now I know 
     Db
it's not enough

e|---------------|
B|---------------|
G|---10b-8b-7b---|
D|---------------|
A|---------------|
E|---------------|

I want to be a clone
  Bb               F
I asked the Lord into my heart
     Ab                Eb
They said that was the way to start
    Gb                Db
But now you've got to play the part

e|---------------|
B|---------------|
G|---10b-8b-7b---|
D|---------------|
A|---------------|
E|---------------|

I want to be a clone

Chorus:

Eb
Be a clone 
            D  C    Bb
And kiss conviction goodnight
Eb                     D  C Bb
Cloneliness is next to Godliness

Right?
    Ab                 G
I'm grateful that they show the way
       Gb            F
'Cause I could never know the way
   E               Eb
To serve him on my own

e|---------------|
B|---------------|
G|---10b-8b-7b---|
D|---------------|
A|---------------|
E|---------------|

I want to be a clone

Verse 2:
     Bb               F
They told me that I'd fall away
  Ab              Eb
Unless I followed what they say
    Gb              Db
Who needs the Bible anyway?

e|---------------|
B|---------------|
G|---10b-8b-7b---|
D|---------------|
A|---------------|
E|---------------|

I want to be a clone
      Bb              F
Their language it was new to me
    Ab               Eb
But Christianese got through to me
    Gb             Db
Now I can speak it fluently

e|---------------|
B|---------------|
G|---10b-8b-7b---|
D|---------------|
A|---------------|
E|---------------|

I want to be a clone

Chorus:

Eb
Be a clone 
            D  C    Bb
And kiss conviction goodnight
Eb                     D  C Bb
Cloneliness is next to Godliness

Right?
    Ab                 G
I'm grateful that they show the way
       Gb            F
'Cause I could never know the way
   E               Eb
To serve him on my own

e|---------------|
B|---------------|
G|---10b-8b-7b---|
D|---------------|
A|---------------|
E|---------------|

I want to be a clone

Bridge:

Send in the clones

Bb  Ab

9X 

Ah, I kind of wanted 
to tell my friends and people 
about it, you know?

What?

e|--------------------------|
B|---11-13-14-15-16-17-18---|
G|--------------------------|
D|--------------------------|
A|--------------------------|
E|--------------------------|

You're still a babe

You have to grow

Give it twenty years or so

'Cause if you want to be one of His

Got to act like one of us

Chorus:

Eb
Be a clone 
            D  C    Bb
And kiss conviction goodnight
Eb                     D  C Bb
Cloneliness is next to Godliness

Right?
    Ab                 G  
I'm grateful that they show the way
       Gb            F
'Cause I could never know the way
   E               Eb
To serve him on my own

e|---------------|
B|---------------|
G|---10b-8b-7b---|
D|---------------|
A|---------------|
E|---------------|

I want to be a clone

Verse 3:
   Bb            F
So now I see the whole design
   Ab            Eb
My church is an assembly line
    Gb
The parts are there 
    Db
I'm feeling fine

e|---------------|
B|---------------|
G|---10b-8b-7b---|
D|---------------|
A|---------------|
E|---------------|

I want to be a clone
     Bb                F
I've learned enough to stay afloat
    Ab            Eb
But not so much I rock the boat
    Gb
I'm glad they shoved it 
Db
Down my throat

e|---------------|
B|---------------|
G|---10b-8b-7b---|
D|---------------|
A|---------------|
E|---------------|

I want to be a clone

Everyone must get cloned


| /  slide up
| \  slide down
| h  hammer-on
| p  pull-off
| ~  vibrato
| +  harmonic
| x  Mute note
Suggest correction
Creating personal tab
Creating personal tab
You can edit any tab online and save it as your Personal.

You can edit, replace or remove any tab part or add personal notes – all changes will be seen only by you.

Personal tabs can be accessed anytime from any device, even offline.
Learn more »
Give kudos to tab author, rate the tab!
1 2 3 4 5
comments
print report bad tab
guest
You may want to rate the tab now too:
select rating
Wanna post a correction for this tab? Suggest correction