Oops, an error
Loading. Please wait.

Intro Tab

20 views 1 this week
no commentswrite comment
1 2 3 4 5
3 more votes to show rating
add to favorites
launch autoscroll
font size
0
reset
how to read this tab
guitar tuner
Autoscroll
slow
fast
+/-
esc
set tempo
stop
Help us to improve Ultimate-Guitar.com Take our survey!
×
Author
Difficulty
intermediate
E|---------------------------------------------------------------------|
B|---12-10-9-10-12-10-12-10-9--10-9-7-9-10-9-10-9-7--8-7-5-7-8-7-8-7-5-|
G|--9--9--9-9--9--9--9--------7--7-7-7-7--7-7-------5-5-5-5-5-5-5------|
D|---------------------------------------------------------------------|
A|---------------------------------------------------------------------|
E|---------------------------------------------------------------------|

E|---------------------------------------3~~-|
B|---6-5-3-5-6-5-6-5-3---4-3-1-3-4-3-4-3-1~~-|
G|--3-3-3-3-3-3-3-------1-1-1-1-1-1-1--------|
D|-------------------------------------------|
A|-------------------------------------------|
E|-------------------------------------------|
                        |this part slows down
Suggest correction
Give kudos to tab author, rate the tab!
1 2 3 4 5
comments
print report bad tab
guest
You may want to rate the tab now too:
select rating
Wanna post a correction for this tab? Suggest correction