Oops, an error
Loading. Please wait.

10-Hour Guitar Workout Tab

version 1
version 1

Whole song

Interactive

120,693 views 24 this week
60 commentsread comments
1 2 3 4 5
x 129
add to favorites
launch autoscroll
font size
0
reset
how to read this tab
guitar tuner
Autoscroll
slow
fast
+/-
esc
set tempo
stop
Help us to improve Ultimate-Guitar.com Take our survey!
×
[Figure 1]
  4/4
[Guitar 1]
   E E E E E E E E   E E E E E E E E   E E E E E E E E
e|-----------------|-----------------|---------1-2-3-4-|
B|-----------------|-----------------|-1-2-3-4---------|
G|-----------------|---------1-2-3-4-|-----------------|
D|-----------------|-1-2-3-4---------|-----------------|
A|---------1-2-3-4-|-----------------|-----------------|
E|-1-2-3-4---------|-----------------|-----------------|

   E E E E E E E E   E E E E E E E E   E E E E E E E E   W
e|-2-3-4-5---------|-----------------|-----------------|------|
B|---------2-3-4-5-|-----------------|-----------------|------|
G|-----------------|-2-3-4-5---------|-----------------|------|
D|-----------------|---------2-3-4-5-|-----------------|------|
A|-----------------|-----------------|-2-3-4-5---------|------|
E|-----------------|-----------------|---------2-3-4-5-|------|

[Figure 2]
  4/4
   E E E E E E E E   E E E E E E E E   E E E E E E E E
e|-----------------|-----------------|---------2-3-4-1-|
B|-----------------|-----------------|-1-2-3-4---------|
G|-----------------|---------4-1-2-3-|-----------------|
D|-----------------|-3-4-1-2---------|-----------------|
A|---------2-3-4-1-|-----------------|-----------------|
E|-1-2-3-4---------|-----------------|-----------------|

   E E E E E E E E   E E E E E E E E   E E E E E E E E   W
e|-4-5-2-3---------|-----------------|-----------------|------|
B|---------5-2-3-4-|-----------------|-----------------|------|
G|-----------------|-2-3-4-5---------|-----------------|------|
D|-----------------|---------3-4-5-2-|-----------------|------|
A|-----------------|-----------------|-4-5-2-3---------|------|
E|-----------------|-----------------|---------5-2-3-4-|------|

[Figure 3]
  4/4
   E E E E E E E E   E E E E E E E E
e|-1-2-3-4-3-4-5-2-|-5-6-3-4-7-4-5-6-|
B|-----------------|-----------------|
G|-----------------|-----------------|
D|-----------------|-----------------|
A|-----------------|-----------------|
E|-----------------|-----------------|

   E E E E E E E E   E  E E E  E E E  E   W
e|-5-6-7-8-7-8-9-6-|-9-10-7-8-11-8-9-10-|------|
B|-----------------|--------------------|------|
G|-----------------|--------------------|------|
D|-----------------|--------------------|------|
A|-----------------|--------------------|------|
E|-----------------|--------------------|------|

[Figure 4]
  3/4
   E E E E E E   E E E E E E   E E E E E E   E E E E E E   W
e|-------------|-------------|-------1-3-4-|-2-4-5-------|------|
B|-------------|-------------|-1-3-4-------|-------2-4-5-|------|
G|-------------|-------1-3-4-|-------------|-------------|------|
D|-------------|-1-3-4-------|-------------|-------------|------|
A|-------1-3-4-|-------------|-------------|-------------|------|
E|-1-3-4-------|-------------|-------------|-------------|------|

[Figure 5]
  3/4
   E E E E E E   E E E E E E   E E E E E E   E E E E E E   W
e|-------------|-------------|-------4-1-3-|-2-4-5-------|------|
B|-------------|-------------|-3-4-1-------|-------4-5-2-|------|
G|-------------|-------1-3-4-|-------------|-------------|------|
D|-------------|-4-1-3-------|-------------|-------------|------|
A|-------3-4-1-|-------------|-------------|-------------|------|
E|-1-3-4-------|-------------|-------------|-------------|------|

[Figure 6]
  3/4
   E E E E E E   E E E E E E   E E E E E E   E E  E  E  E E   W
e|-1-3-4-4-5-2-|-6-3-5-4-6-7-|-7-8-5-9-6-8-|-7-9-10-10-11-8-|------|
B|-------------|-------------|-------------|----------------|------|
G|-------------|-------------|-------------|----------------|------|
D|-------------|-------------|-------------|----------------|------|
A|-------------|-------------|-------------|----------------|------|
E|-------------|-------------|-------------|----------------|------|

[Figure 7]
  3/4
   E E E E E E   E E E E E E   E E E E E E   E E E E E E   W
e|-------------|---------4-2-|-3-5---------|-------------|------|
B|-------------|-----2-4-----|-----5-3-----|-------------|------|
G|-------------|-4-2---------|---------3-5-|-------------|------|
D|---------2-4-|-------------|-------------|-5-3---------|------|
A|-----4-2-----|-------------|-------------|-----3-5-----|------|
E|-2-4---------|-------------|-------------|---------5-3-|------|

[Figure 8]
  4/4
   E E E E E E E E   E E E E E  E  E E   W
e|-2-4-5-3-4-6-7-5-|-6-8-9-7-8-10-11-9-|------|
B|-----------------|-------------------|------|
G|-----------------|-------------------|------|
D|-----------------|-------------------|------|
A|-----------------|-------------------|------|
E|-----------------|-------------------|------|

[Figure 9]
  3/4
   E E E E E E   E E E E E E   E E E E E E   E E E E E E   W
e|-------------|---------1-3-|-2-4---------|-------------|------|
B|-------------|-----1-3-----|-----2-4-----|-------------|------|
G|-------------|-1-3---------|---------2-4-|-------------|------|
D|---------1-3-|-------------|-------------|-2-4---------|------|
A|-----1-3-----|-------------|-------------|-----2-4-----|------|
E|-1-3---------|-------------|-------------|---------2-4-|------|

[Figure 10]
  3/4
   E E E E E E   E E E E E E   E E E E E E   E E E E E E   W
e|-------------|---------1-4-|-2-5---------|-------------|------|
B|-------------|-----1-4-----|-----2-5-----|-------------|------|
G|-------------|-1-4---------|---------2-5-|-------------|------|
D|---------1-4-|-------------|-------------|-2-5---------|------|
A|-----1-4-----|-------------|-------------|-----2-5-----|------|
E|-1-4---------|-------------|-------------|---------2-5-|------|

[Figure 11]
  4/4
   E E E E E E E E   E E E E E E E E   E E E E E E E E
e|-1-2---3-----4---|-----------------|-----------------|
B|-----1---2-----3-|-----4-----------|-----------------|
G|-----------1-----|-2-----3-----4---|-----------------|
D|-----------------|---1-----2-----3-|-----4-----------|
A|-----------------|-----------1-----|-2-----3---4-----|
E|-----------------|-----------------|---1-----2---3-4-|

   E E E E E E E E   E E E E E E E E   E E E E E E E E   W
e|-----------------|-----------------|---1-----2---3-4-|------|
B|-----------------|-----------1-----|-2-----3---4-----|------|
G|-----------------|---1-----2-----3-|-----4-----------|------|
D|-----------1-----|-2-----3-----4---|-----------------|------|
A|-----1---2-----3-|-----4-----------|-----------------|------|
E|-1-2---3-----4---|-----------------|-----------------|------|

[Figure 12]
  4/4
   E E E E E E E E   E E E E E E E E   E E E E E E E E
e|-4-3---2-----1---|-----------------|-----------------|
B|-----4---3-----2-|-----1-----------|-----------------|
G|-----------4-----|-3-----2-----1---|-----------------|
D|-----------------|---4-----3-----2-|-----1-----------|
A|-----------------|-----------4-----|-3-----2---1-----|
E|-----------------|-----------------|---4-----3---2-1-|

   E E E E E E E E   E E E E E E E E   E E E E E E E E   W
e|-----------------|-----------------|---4-----3---2-1-|------|
B|-----------------|-----------4-----|-3-----2---1-----|------|
G|-----------------|---4-----3-----2-|-----1-----------|------|
D|-----------4-----|-3-----2-----1---|-----------------|------|
A|-----4---3-----2-|-----1-----------|-----------------|------|
E|-4-3---2-----1---|-----------------|-----------------|------|

[Figure 13]
  4/4
   E E E E E E E E   E E E E E E E E   E E E E E E E E
e|-4-2---3-----1---|-----------------|-----------------|
B|-----4---2-----3-|-----1-----------|-----------------|
G|-----------4-----|-2-----3-----1---|-----------------|
D|-----------------|---4-----2-----3-|-----1-----------|
A|-----------------|-----------4-----|-2-----3---1-----|
E|-----------------|-----------------|---4-----2---3-1-|

   E E E E E E E E   E E E E E E E E   E E E E E E E E   W
e|-----------------|-----------------|---4-----2---3-1-|------|
B|-----------------|-----------4-----|-2-----3---1-----|------|
G|-----------------|---4-----2-----3-|-----1-----------|------|
D|-----------4-----|-2-----3-----1---|-----------------|------|
A|-----4---2-----3-|-----1-----------|-----------------|------|
E|-4-2---3-----1---|-----------------|-----------------|------|

[Figure 14]
   Gmaj7         Gmaj7/B       Gmaj7/D         Gmaj7/F#
  4/4
   Q  Q  Q  Q    Q  Q  Q  Q     Q  Q   Q  Q     Q   Q   Q   Q    W
e|-------------|-------------|---------------|-----------------|------|
B|----------3--|----------7--|------------8--|-------------12--|------|
G|-------4-----|-------7-----|--------11-----|---------12------|------|
D|----4--------|----5--------|-----9---------|-----12----------|------|
A|-------------|-------------|---------------|-----------------|------|
E|-3-----------|-7-----------|-10------------|-14--------------|------|

   G6            G6/B          G6/D           G6/E
  4/4
   Q  Q  Q  Q    Q  Q  Q  Q     Q  Q  Q  Q     Q   Q   Q   Q    W
e|-------------|-------------|--------------|-----------------|------|
B|----------3--|----------5--|-----------8--|-------------12--|------|
G|-------4-----|-------7-----|--------9-----|---------12------|------|
D|----2--------|----5--------|-----9--------|-----12----------|------|
A|-------------|-------------|--------------|-----------------|------|
E|-3-----------|-7-----------|-10-----------|-12--------------|------|

   G7            G7/B          G7/D             G7/F
  4/4
   Q  Q  Q  Q    Q  Q  Q  Q     Q   Q  Q   Q     Q   Q   Q   Q    W
e|-------------|-------------|----------------|-----------------|------|
B|----------3--|----------6--|------------10--|-------------12--|------|
G|-------4-----|-------7-----|---------9------|---------12------|------|
D|----3--------|----5--------|-----10---------|-----12----------|------|
A|-------------|-------------|----------------|-----------------|------|
E|-3-----------|-7-----------|-10-------------|-13--------------|------|

   Gm7           Gm7/Bb        Gm7/D           Gm7/F
  4/4
   Q  Q  Q  Q    Q  Q  Q  Q     Q  Q   Q  Q     Q   Q   Q   Q    W
e|-------------|-------------|---------------|-----------------|------|
B|----------3--|----------6--|------------9--|-------------11--|------|
G|-------3-----|-------7-----|--------10-----|---------12------|------|
D|----3--------|----5--------|-----9---------|-----12----------|------|
A|-------------|-------------|---------------|-----------------|------|
E|-3-----------|-6-----------|-10------------|-13--------------|------|

   Gm6           Gm6/Bb        Gm6/D          Gm6/E
  4/4
   Q  Q  Q  Q    Q  Q  Q  Q     Q  Q  Q  Q     Q   Q   Q   Q    W
e|-------------|-------------|--------------|-----------------|------|
B|----------3--|----------5--|-----------8--|-------------11--|------|
G|-------3-----|-------7-----|--------9-----|---------12------|------|
D|----2--------|----5--------|-----8--------|-----12----------|------|
A|-------------|-------------|--------------|-----------------|------|
E|-3-----------|-6-----------|-10-----------|-12--------------|------|

[Figure 15]
  4/4
   Q  Q  Q  Q    Q  Q  Q  Q    Q  Q  Q  Q    Q  Q  Q  Q
e|-------------|-------------|-------------|----2--3-----|
B|-------------|-------------|----------3--|-5-----------|
G|-------------|-------------|-2--4--5-----|-------------|
D|-------------|----2--4--5--|-------------|-------------|
A|-------2--3--|-5-----------|-------------|-------------|
E|-3--5--------|-------------|-------------|-------------|

  4/4
   E E E E E E E E   E E E E E E E E   E E E E E E E E   E E E E Q  Q
e|-----------------|-----------------|---------------2-|---3-2-5-3-----|
B|-----------------|-----------------|-------3---5-3---|-5-------------|
G|-----------------|-----------2---4-|-2-5-4---5-------|---------------|
D|---------------2-|---4-2-5-4---5---|-----------------|---------------|
A|---2---3-2-5-3---|-5---------------|-----------------|---------------|
E|-3---5-----------|-----------------|-----------------|---------------|

  4/4
   E E E E E E E E   E E E E E E E E   E E E E E E E E   E E Q  H
e|-----------------|-----------------|-----------2---3-|---5-3-------|
B|-----------------|-----------------|---3---5-----3---|-5-----------|
G|-----------------|-------2---4---5-|-2---4---5-------|-------------|
D|-----------2---4-|---5-2---4---5---|-----------------|-------------|
A|---3---5-2---3---|-5---------------|-----------------|-------------|
E|-3---5-----------|-----------------|-----------------|-------------|

  4/4
   E E E E E E E E   E E E E E E E E   E E E E E E E E   Q  Q  H
e|-----------------|-----------------|-------2---3---5-|-3----------|
B|-----------------|---------------3-|---5---------3---|------------|
G|-----------------|---2---4---5-----|-2---4---5-------|------------|
D|-------2---4---5-|-----2---4---5---|-----------------|------------|
A|---5-----2---3---|-5---------------|-----------------|------------|
E|-3---5-----------|-----------------|-----------------|------------|

[Figure 16]
  4/4
   E E E E E E E E   E E E E E E E E   E E E E E E E E   E E E E Q  Q
e|-----------------|-----------------|---------------1-|---3-1-5-3-----|
B|-----------------|-----------------|-------3---5-3---|-5-------------|
G|-----------------|-----------2---3-|-2-5-3---5-------|---------------|
D|---------------2-|---3-2-5-3---5---|-----------------|---------------|
A|---1---3-1-5-3---|-5---------------|-----------------|---------------|
E|-3---5-----------|-----------------|-----------------|---------------|

  4/4
   E E E E E E E E   E E E E E E E E   E E E E E E E E   E E E E Q  Q
e|-----------------|-----------------|-----------------|---3---4-3-----|
B|-----------------|-----------------|-------3---4-3-6-|-4---6---------|
G|-----------------|---------------3-|---5-3---5-------|---------------|
D|-----------------|---3---5-3-6-5---|-6---------------|---------------|
A|-------3---5-3-6-|-5---6-----------|-----------------|---------------|
E|-3-6-4---6-------|-----------------|-----------------|---------------|

   E E E E E E E E   E E E E E E E E   E E E E E E E E   E E E E Q  Q
e|-----------------|-----------------|---------------2-|---3-2-5-3------|
B|-----------------|-----------------|---2---3-2-5-3---|-5--------------|
G|-----------------|-----------2---4-|-2---4-----------|----------------|
D|---------------2-|---4-2-5-4---5---|-----------------|----------------|
A|---2---4-2-5-4---|-5---------------|-----------------|----------------|
E|-3---5-----------|-----------------|-----------------|----------------|

  4/4
   E E E E E E E E   E E E E E E E E   E E E E E E E E   E E E E Q  Q
e|-----------------|-----------------|---------------1-|---3-2-5-3-----|
B|-----------------|-----------------|---1---3-1-5-3---|-5-------------|
G|-----------------|-----------2---4-|-2---4-----------|---------------|
D|---------------2-|---3-2-5-3---5---|-----------------|---------------|
A|---2---4-2-5-4---|-5---------------|-----------------|---------------|
E|-3---5-----------|-----------------|-----------------|---------------|

  4/4
   E E E E E E E E   E E E E E E E E   E E E E E E E E   E E E E Q  Q
e|-----------------|-----------------|-----------------|---3---5-3-----|
B|-----------------|-----------------|-------3---4-3-6-|-4---6---------|
G|-----------------|---------------3-|---5-3---5-------|---------------|
D|-----------------|---3---5-3-7-5---|-7---------------|---------------|
A|-------3---5-3-6-|-5---6-----------|-----------------|---------------|
E|-3-6-5---6-------|-----------------|-----------------|---------------|

  4/4
   E E E E E E E E   E E E E E E E E   E E E E E E E E   E E E E Q  Q
e|-----------------|-----------------|-----------------|---3---4-3------|
B|-----------------|-----------------|-----------4---6-|-4---6----------|
G|-----------------|---------------3-|---5-3-6-5---6---|----------------|
D|-----------------|---3---5-3-6-5---|-6---------------|----------------|
A|-------3---4-3-6-|-4---6-----------|-----------------|----------------|
E|-3-6-4---6-------|-----------------|-----------------|----------------|

[Figure 17]
  4/4
   E E E E E E E E   E E E E  E E E  E
e|-----------------|-------------------|
B|-----------------|-------------------|
G|-----------------|------------8-9-11-|
D|-----------------|---6-7-9-11--------|
A|-----------4-6-7-|-9-----------------|
E|-0-2-4-5-7-------|-------------------|

   E  E  E  E  E  E  E  E    E  E  E  E  Q  Q
e|------------11-12-14-16-|-17-19-21-23-24------|
B|-9-10-12-14-------------|---------------------|
G|------------------------|---------------------|
D|------------------------|---------------------|
A|------------------------|---------------------|
E|------------------------|---------------------|

[Figure 18]
   Q=80
   Emadd9                Gmaj1Emadd9
[Guitar 2]
   S S S S S S S S S S E Q
e|-------0---------------0--|
B|-------0-0-------------3--|
G|-------0---0-----------2--|
D|-----4-------4---------4--|
A|---2-----------2---2------|
E|-0---------------0---3----|

                         Gmaj1Emadd9                Gmaj13
   S S S S S S S S S S E Q    S S S S S S S S S S E Q
e|-------0---------------0--|-------0---------------0--|
B|-------0-0-------------3--|-------0-0-------------3--|
G|-------0---0-----------2--|-------0---0-----------2--|
D|-----4-------4---------4--|-----4-------4---------4--|
A|---2-----------2---2------|---2-----------2---2------|
E|-0---------------0---3----|-0---------------0---3----|

   Emadd9                Gmaj13     Emadd9                  Gmaj13
[Guitar 1]
                                     ~~~
   H               Q      S  E  S    H.                      E  E
e|--------------------------------|-------------------------------|
B|-----------------------15h17-17-|-17----------------------15s12-|
G|--------------------------------|-------------------------------|
D|--------------------------------|-------------------------------|
A|--------------------------------|-------------------------------|
E|--------------------------------|-------------------------------|

[Guitar 2]
   S S S S S S S S S S E  Q          S  S S S S S S S S S E  Q
e|-------0----------------0-------|---------0----------------0----|
B|-------0-0--------------3-------|---------0-0--------------3----|
G|-------0---0------------2-------|---------0---0------------2----|
D|-----4-------4----------4-------|-------4-------4----------4----|
A|---2-----------2---2------------|-----2-----------2---2---------|
E|-0---------------0---3----------|--0----------------0---3-------|

   Emadd9                  Gmaj13
    ~~~
    H.                     E.  a      +S
e|------------------------------------------|
B|-12---------------------------------------|
G|----------------------------14b16==(14)r==|
D|------------------------------------------|
A|------------------------------------------|
E|------------------------------------------|

 |  S  S S S S S S S S S E Q
e|---------0---------------0----------------|
B|---------0-0-------------3----------------|
G|---------0---0-----------2----------------|
D|-------4-------4---------4----------------|
A|-----2-----------2---2--------------------|
E|--0----------------0---3------------------|

   Emadd9                                               Gmaj13
     ~~~~
    +Q.            +T   T  T T  T     +S.    T  T  T  T  E     T  T  S
e|---------------------------------------------------------------------|
B|---------------------------------------------------------------------|
G|-(14)-----------(14)-12-14---14b16r(14)---12----12-14-14b16-14p12----|
D|---------------------------------------------14-------------------14-|
A|---------------------------------------------------------------------|
E|---------------------------------------------------------------------|

 |   S  S S S S S   S      S    S         S  E           Q
e|----------0--------------------------------------------0-------------|
B|----------0-0------------------------------------------3-------------|
G|----------0---0----------------------------------------2-------------|
D|--------4---------4------------------------------------4-------------|
A|------2------------------2--------------2----------------------------|
E|---0--------------------------0------------3-------------------------|

   Emadd9
    ~~
    H               H
e|-------------------------|
B|-------------------------|
G|-------------------------|
D|-14----------------------|
A|-------------------------|
E|-------------------------|

 |  S S S S S S S S Q  Q
e|--------0----------------|
B|--------0-0--------------|
G|--------0---0------------|
D|------4-------4----------|
A|----2-----------2--------|
E|--0---------------0------|

  Figure 18b
   Emadd9                         Gmaj13        Emadd9                  Gmaj1Emadd9
            ~~~~~~~~~~~~~~~~~~                   ~~~
    E       Q.            +Q       S  S  S  S    H.                     Q
e|--------------------------------------------|----------------------------|
B|--------------------------------------------|----------------------------|
G|-14b16---12------------(12)--------------12-|----------------------------|
D|--------------------------------12h14-14----|-14-------------------------|
A|--------------------------------------------|----------------------------|
E|--------------------------------------------|----------------------------|

 |  S    S  S  S S S S S   S  S E  Q             S  S S S S S S S S S E Q
e|-------------0-------------------0----------|---------0---------------0--|
B|-------------0-0-----------------3----------|---------0-0-------------3--|
G|-------------0---0---------------2----------|---------0---0-----------2--|
D|----------4--------4-------------4----------|-------4-------4---------4--|
A|-------2-------------2------2---------------|-----2-----------2---2------|
E|--0----------------------0----3-------------|--0----------------0---3----|

                                              Gmaj1Emadd9                                     Gmaj13
          ~~~                                             ~~~~~
    S     E.      S  S  S  S  S      +S   +E  Q     S     E.        S     +S   S  S  H
e|-----------------------------------------------|-------------------------------------------------*|
B|-15b17-12------------12------------------------|-17b19-17b19-----17b19r(17)-15-17-17b19----------*|
G|---------------12h14----12-14b16==(14)r(14)----|-------------------------------------------------*|
D|-----------------------------------------------|-------------------------------------------------*|
A|-----------------------------------------------|-------------------------------------------------*|
E|-----------------------------------------------|-------------------------------------------------*|

 |  S     S  S S  S  S  S  S  S       S    E  Q     S     S    S S  S      S   S  S  S    S E Q
e|-------------0------------------------------0--|---------------0----------------------------0----*|
B|-------------0--0---------------------------3--|---------------0--0-------------------------3----*|
G|-------------0-----0------------------------2--|---------------0---------0------------------2----*|
D|-----------4----------4---------------------4--|-------------4---------------4--------------4----*|
A|--------2----------------2----------2----------|--------2-----------------------2-------2--------*|
E|--0-------------------------0------------3-----|--0--------------------------------0------3------*|


************************************

| h    Hammer-on
| ~    Vibrato
| b    Bend
| (n)  Ghost note
| p    Pull-off
| *    Natural harmonic

************************************
Suggest correction
comments
print report bad tab
60 comments total. Showing first comments. show 1 bad comment
+2 reply
curlygalatoire 10 Apr 04, 2005 12:00 AM

Thanks for tabbin it out i lost the magazine and this practice is the ***, can you put the Zak Wylde one too? haha if i'm not asking too much

+3 reply
Iboseth 30 Apr 04, 2005 12:00 AM

lol... THANKS A LOT DUDE

guest
You may want to rate the tab now too:
select rating
Wanna post a correction for this tab? Suggest correction