Oops, an error
Loading. Please wait.

Bill And Ted Final Tab

8,208 views 6 this week
no commentswrite comment
1 2 3 4 5
please rate
add to favorites
launch autoscroll
font size
0
reset
how to read this tab
guitar tuner
Autoscroll
slow
fast
+/-
esc
set tempo
stop
Help us to improve Ultimate-Guitar.com Take our survey!
×
Contributor
Difficulty
novice
Tuning: E standard

(credit for this part to guitarman53jc, this is his version he did on youtube, I 
just put it into tabbs.)

Lead
       
e|---------------------------------------------9/12p10p9h10-12/14-14-12----|
B|-9-10b(12)rp9h10-9-10p9--------------------9--------------------------15-|
G|-----------------------11-9--11p9/8----8-9-------------------------------|
D|------------------------------------11-----------------------------------|
A|-------------------------------------------------------------------------|
E|-------------------------------------------------------------------------|

e|-------------------------------------------------------------------------|
B|-14-12------------------12--14p12----------------------9-----------------|
G|--------14-13-14p13----------------14-14TR16\13\-----9----11TR13\9TR11\8-|
D|--------------------14----------------------------11---------------------|
A|-------------------------------------------------------------------------|
E|-------------------------------------------------------------------------|

e|-------------------9--12p10p9-10-12-12/14--------------------------------|
B|-----------------9-------------------------------------------------------|
G|-9-8----11-9-8-9---------------------------------------------------------|
D|-----11------------------------------------------------------------------|
A|-------------------------------------------------------------------------|
E|-------------------------------------------------------------------------|

Rhythm

Repeat through whole solo
e|-------------------------------------------------------------------------|
B|-------------------------------------------------------------------------|
G|--9xxx--9xxx--9xxx--9xxx--4xxx--4xxx--4xxx--4xxx--6xxx--6xxx--6xxx--6xxx-|
D|--9xxx--9xxx--9xxx--9xxx--4xxx--4xxx--4xxx--4xxx--6xxx--6xxx--6xxx--6xxx-|
A|--7xxx--7xxx--7xxx--7xxx--2xxx--2xxx--2xxx--2xxx--4xxx--4xxx--4xxx--4xxx-|
E|-------------------------------------------------------------------------|

e|-------------------------------------------------------------------------|
B|-------------------------------------------------------------------------|
G|--7xxx--7xxx--7xxx--7xxx-------------------------------------------------|
D|--7xxx--7xxx--7xxx--7xxx--7--6--4----------------------------------------|
A|--5xxx--5xxx--5xxx--5xxx-----------7--6--4-------------------------------|
E|-------------------------------------------------------------------------|

Right after second part of solo
(first part of the intro to the song God Gave Rock and Roll to you by Kiss)
Normaly played in 1/2 step down, this is tabbed for regular tuning.
(credit to SlashIsGod091)

E|-------------------------------------------------------------------------|
B|----7--7-----8~--7-9\------------------7---------------------------------|
G|-8--------8-------------------4--6-4-6b----6r6p4-6-----4----4-6-4----6b--|
D|---------------------------6-----------------------6------6-------6------|
A|-------------------------------------------------------------------------|
E|-------------------------------------------------------------------------|
                           
E|-------------------------------------------------------------------------|
B|---------------------7-9-----7-------------------------------------------|
G|-6~-4--6-4-4~----/8-------8----------------------------------------------|
D|-------------------------------------------------------------------------|
A|-------------------------------------------------------------------------|
E|-------------------------------------------------------------------------|



************************************

| /   slide up
| \   slide down
| h   hammer-on
| p   pull-off
| ~   vibrato
| +   harmonic
| x   Mute note
| b   Bend
| pb  Pre-bend
| br  Bend release
| pbr Pre-bend release
| brb Bend release bend
| 10b(12)r bend from 10 to 12 then release back to 10
comments
We did not receive enough feedback on this tab! Please rate:
print report bad tab
1 2 3 4 5
I want to post or [tab]
guest
You may want to rate the tab now too:
select rating
Please do not post tabs as comments. Select "correction" instead!