Oops, an error
Loading. Please wait.

Building The Church tab

version 1
version 1

Whole song

Interactive

77,424 views 72 this week
7 commentsread comments
1 2 3 4 5
x 18
add to favorites
×
Save as Personal and add changes to this tab that will be seen only by you. Learn more ›
×
You can save this tab as Personal to edit and correct it or add notes. All changes will be seen only by you. Learn more »
launch autoscroll
font size
0
reset
how to read this tab
guitar tuner
backing track
0:00
0:00
edit
Autoscroll
slow
fast
+/-
esc
set tempo
stop
Author
Difficulty
Unregistered
(Gtr 1) (E A D G B E) - 'Untitled'
(Gtr 2) (C G C F A D) - 'Untitled'
(Gtr 3) (C G C F A D) - 'Untitled'
(Gtr 4) (E A D G B E) - 'Untitled'
(Gtr 5) (E A D G B E) - 'Untitled'
(Gtr 6) (E A D G B E) - 'Untitled'

[Intro]
Moderately Q=94
N.C.
4/4
(Gtrs 1, 4)     
      T  T  T  T  T  T  T  T  T  T  T  T  T  T  T  T  T  T  T  T  T  T  T  T  T  T  T  T  T  T  T  T   (4x)
e|-----10----------10----------10----------10----------10----------10----------10----------10---------|
B|o-13----------------13----------------13----------------13----------------13----------13-----------o|
G|--------12----------------12----------------12----------------12----------------12----------12------|
D|-----------10----------10----------10----------10----------10----------10----------10----------10---|
A|o-------------12----------------12----------------12----------------12-----------------------------o|
E|----------------------------------------------------------------------------------------------------|

    D5    E5                      D5    E5                       D5    E5    D5    E5
(Gtrs 2, 3)
                                                                  PM---|
     S     S     e           S     S     S     S     S     S      S     S     S     S     E
e|---------------------------------------------------------------------------------------------------|
B|o--------------------------------------------------------------------------------------------------|
G|---------------------------------------------------------------------------------------------------|
D|--------------------------------------------------------<5>----------------------------------------|
A|o--0h====2-----2-----------x-----0h====2-----2------------------0-----2-----0h====2-----x----------|
E|---0h====2-----2-----------x-----0h====2-----2------------------0-----2-----0h====2-----x----------|

(Gtrs 1, 4)
      T  T  T  T  T  T  T  T  T  T  T  T  T  T  T  T  T  T  T   T  T  T  T  T  T  T  T  T  T  T  T  T
e|-----10----------10----------10----------10----------10-----------10----------10----------10-------|
B|o-13----------------13----------------13----------------13-----------------13----------13----------|
G|--------12----------------12----------------12-----------------12----------------12----------12----|
D|-----------10----------10----------10----------10-----------10----------10----------10----------10-|
A|o-------------12----------------12----------------12-----------------12----------------------------|
E|---------------------------------------------------------------------------------------------------|


  D5    E5                      D5    E5                N.C.
                                                                  ~~~~
                                                                               |------------6------------|
   S     S     e           S     S     S     S     S     S       +E            S    S    S     S    S    S
e|-----------------------------------------------------------------------------------------------------------|
B|----------------------------------------------------------------------------------------------------------o|
G|-------------------------------------------------------[4]b6r===(4)p==========2----------------------------|
D|-----------------------------------------------------------------------------------4p===2------------------|
A|--0h====2-----2-----------x-----0h====2-----2-------------------------------------------------5p===2p===0-o|
E|--0h====2-----2-----------x-----0h====2-----2--------------------------------------------------------------|

    T  T  T  T  T  T  T  T  T  T  T  T  T  T  T  T  T  T  T     T  T   T  T  T  T  T    T    T  T  T  T    T
e|----10----------10----------10----------10----------10--------------10----------10--------------10---------|
B|-13----------------13----------------13----------------13--------------------13--------------13-----------o|
G|-------12----------------12----------------12-------------------12-------------------12-------------12-----|
D|----------10----------10----------10----------10-------------10-----------10--------------10-----------10--|
A|-------------12----------------12----------------12--------------------12---------------------------------o|
E|-----------------------------------------------------------------------------------------------------------|

(Gtrs 2, 3)
    S     S     e           S     S     S      S  H
e|-----------------------------------------------------|
B|-----------------------------------------------------|
G|-----------------------------------------------------|
D|-----------------------------------------------------|
A|--0h====2-----2-----------x-----0h====2------2-------|
E|--0h====2-----2-----------x-----0h====2------2-------|

(Gtrs 1, 4)                                         
    T  T  T  T  T  T  T  T  T  T  T  T  T  T   s  H
e|----10----------10----------10----------10-(17)------|
B|-13----------------13----------------13--------------|
G|-------12----------------12-----------------12-------|
D|----------10----------10----------10-----------------|
A|-------------12----------------12--------------------|
E|-----------------------------------------------------|

[Verse 1]
N.C.
     ~~~~~~~~~~~~~~~~~~~                       ~~~~~~~~~~~~~~~~
   S E.   +Q        +E.   S    +S  S E   E.    S +Q        +Q.       +E
e|-------------------------------------|----------------------------------|
B|-------------------------------------|----------------------------------|
G|-------------------------------------|-------5-(5)-------(5)-------(5)/-|
D|-5s7----(7)-------(7)---7pb8r(7)p5---|-5--------------------------------|
A|-----------------------------------8-|----------------------------------|
E|-------------------------------------|----------------------------------|

(Gtrs 2, 3)
                                                                 ~
   S S  e  S  S S S  E  S S     S  S e   S S e    S  S S S  E  S S E  E
e|-------------------------------------|----------------------------------|
B|-------------------------------------|----------------------------------|
G|-------------------------------------|----------------------------------|
D|-------------------------------------|----------------------------------|
A|-------------------------------------|----------------------------------|
E|-0h2--2-----0h2-2-----0h2-----0h=2-2-|-0h3-3-------0h3-3-----0h5-5--3---|

                                                     ~~~~~~~
   E    E S E   S +E.   S     +S  S  E     E.     a  S  +H                   E    E
e|-------------------------------------|--------------------------------------------|
B|-------------------------------------|--------------------------------------------|
G|--------5h7s==9-(9)---9pb10r(9)p7----|---------10s12-(12)---------------------/14p|
D|-----\7---------------------------10-|-/12----------------------------------------|
A|-------------------------------------|--------------------------------------------|
E|-------------------------------------|--------------------------------------------|

   S S  e S S S S  E  S S      S  S  e     S S e         S  S S S E S +S    +E    E
e|-------------------------------------|--------------------------------------------|
B|-------------------------------------|--------------------------------------------|
G|-------------------------------------|--------------------------------------------|
D|-------------------------------------|--------------------------------------------|
A|-------------------------------------|--------------------------------------------|
E|-0h2--2---0h2-2-----0h2------0h=2--2-|---0h3-3------------0h3-3---7-(7)b8r(7)---5-|

    Q       E.       S   +Q        E    E
e|-------------------------------------------|
B|-------------------------------------------|
G|-11----------------------------------11s===|
D|--------<12>-------------------/12---------|
A|-----------------<12>-(12)-----------------|
E|-------------------------------------------|

    S S e   S  S S   S    E  S S   S S  e
e|-------------------------------------------|
B|-------------------------------------------|
G|-------------------------------------------|
D|-------------------------------------------|
A|-------------------------------------------|
E|--0h2-2------0h2---2-------0h2---0h2--2----|
                                          
   Q       Q         Q      E.      +T   T |
e|-----------------------------------------|
B|-----------------------------------------|
G|-8-----/10-------/12-----14b15r==(14)p12-|
D|-----------------------------------------|
A|-----------------------------------------|
E|-----------------------------------------|

                                                        |------3------|
   S  S      +S   S      +S   S      +S   S  +E.    S  +S      +S     S  E
e|--------------------------------------------------------------------------|
B|--------------------------------------------------------------------------|
G|-14-14pb15r(14)-14pb15r(14)-14pb15r(14)-14-(14)---14-(14)b15r(14)p==12----|
D|-----------------------------------------------------------------------15-|
A|--------------------------------------------------------------------------|
E|--------------------------------------------------------------------------|

 |                          ~~~~~~|
 | S S e   S S S S   E S S  E    E         |
e|-----------------------------------------|
B|-----------------------------------------|
G|-----------------------------------------|
D|-----------------------------------------|
A|-----------------------------------------|
E|-0h3-3-----0h3-3-----0h5--5----3---------|

    S  S       e           S   S       S   S   E  S  S   S          S     e
e|--------------------------------------------------------------------------|
B|--------------------------------------------------------------------------|
G|--------------------------------------------------------------------------|
D|--------------------------------------------------------------------------|
A|--------------------------------------------------------------------------|
E|--0h=2-------2---------------0h======2---2------0h=2---0h=========2-----2-|

            ~~~~~~~~~~~~~~~~~~~~~~
     E.     S      +Q         +Q.              +E
e|-----------------------------------------------------|
B|-----------------------------------------------------|
G|---------17b19==(17)-------(17)-------------(17)r\---|
D|-/17-------------------------------------------------|
A|-----------------------------------------------------|
E|-----------------------------------------------------|

     S S e          S  S S S   E  S +S    +E    E
e|-----------------------------------------------------|
B|-----------------------------------------------------|
G|-----------------------------------------------------|
D|-----------------------------------------------------|
A|-----------------------------------------------------|
E|---0h3-3-------------0h3-3------7-(7)b8r(7)---5------|

  D5Bb5     D5 Bb5               D5   Bb5 D5Bb5
(Gtrs 4, 5)
                                 |--3---|
  S   S S S  S S S  a  S  +S   S S  S   S S  S S  S
e|---------------------------------------------------|
B|---/11s9p8-----------------------------------------|
G|-----------10-8-7-10s12-(12)s10-8h10p==8s7---------|
D|-------------------------------------------10-8----|
A|------------------------------------------------11-|
E|---------------------------------------------------|

(Gtrs 2, 3)
   S   S e    S S S     S   S   S S    S   S  S e
e|---------------------------------------------------|
B|---------------------------------------------------|
G|---------------------------------------------------|
D|---------------------------------------------------|
A|-0h==8-8----x-0h8-----8-------x-0h===8---0h=8-8----|
E|-0h==8-8----x-0h8-----8-------x-0h===8---0h=8-8----|

   D5 A5        D5 A5                 D5A5D5   A5
    E.     S  S  S  S  +S       +Q          E     +E
e|-----------------------------------------------------|
B|-----------13----------------------------------------|
G|--------10-------------------------------------------|
D|--------------10-10-(10)b12==(10)-------[10]r==(10)\-|
A|-10--------------------------------------------------|
E|-----------------------------------------------------|

    S S e     S  S  S   S        S  S S S   S  S   e
e|-----------------------------------------------------|
B|-----------------------------------------------------|
G|-----------------------------------------------------|
D|-----------------------------------------------------|
A|--0h7-7-----x--0h=7---7-----------x-0h7---0h=7---7---|
E|--0h7-7-----x--0h=7---7-----------x-0h7---0h=7---7---|

   D5Bb5              D5 Bb5               D5   Bb5   D5 Bb5
   (Gtr 5)
                             ~~~~~~~~~~~~
   S  S     +S   S  S  S  S  S      +E      +S   T  T  S  S  S  S
e|---18b20r(18)p16------------------------------------------------|
B|-----------------20-18-16-20b21==(20)r===(20)h21p20p18----------|
G|-------------------------------------------------------20-19h20-|
D|----------------------------------------------------------------|
A|----------------------------------------------------------------|
E|----------------------------------------------------------------|

(Gtr 6)
                            ~~~~~~~~~~~~
   S  S     +S   S  S  S  S  S      +E.          T  T  S  S  S  S
e|---15b17r(15)p13------------------------------------------------|
B|-----------------16-15-13-16b18==(16)r--------15p13p11----------|
G|-------------------------------------------------------13-12h13-|
D|----------------------------------------------------------------|
A|----------------------------------------------------------------|
E|----------------------------------------------------------------|

(Gtrs 2, 3)
   S  S      e      S  S  S  S       S   S   S   S     S  S  E
e|----------------------------------------------------------------|
B|----------------------------------------------------------------|
G|----------------------------------------------------------------|
D|----------------------------------------------------------------|
A|-0h=8------8------x--0h=8--8-----------x---0h==8-----0h=8--8----|
E|-0h=8------8------x--0h=8--8-----------x---0h==8-----0h=8--8----|


[Chorus 1]
   A5           Eb5                          E5                   D5E5              E5 F5
(Gtrs 4, 5)
                 ~~~~~~~~~~~~~~~~~~~~~~~~                       ~~~~~~~~~~~~~~~~
    E.  S  +E    E      +Q.        +E         E.     S  +S   S  E    +Q    +S     S  S  S
e|---------------------------------------|------------------------------------------------|
B|---------------------------------------|-----------------13------------------/10-10-10--|
G|-19--20-(20)--20b22==(20)-------(20)r\-|--12b14==12-(12)----12---(12)--(12)r------------|
D|---------------------------------------|------------------------------------------------|
A|---------------------------------------|------------------------------------------------|
E|---------------------------------------|------------------------------------------------|

                ~~~~~~~~~~~~~~~~~~~~~~~~
    E.  S  +E    E      +Q.        +E         W
e|---------------------------------------|------------------------------------------------|
B|---------------------------------------|------------------------------------------------|
G|-12--13-(13)--15b17==(15)-------(15)r\-|------------------------------------------------|
D|---------------------------------------|------------------------------------------------|
A|---------------------------------------|------------------------------------------------|
E|---------------------------------------|------------------------------------------------|

    E.  S  +E    E      +Q     Q              Q         +E.       S   Q.             S  S
e|---------------------------------------|------------------------------------------------|
B|---------------------------------------|------------------------------------------------|
G|---------------------------------------|------------------------------------------4s=5--|
D|---------------1------(1)--------------|------------------------------------------2s=3--|
A|--7---7--(7)\--1------(1)--------------|---2---------(2)p======0---2--------------2s=3--|
E|--7---7--(7)\--1------(1)--/12\--------|---2---------(2)p======0---2--------------2s=3--|

   C5                  CM7sus2
(Gtrs 4, 5)
                        ~~~~~~~~~~~~~
    E.     S  +S   +S   E  +Q    +S   +S           E
e|--------------------------------------------------------|
B|-13b15==13-(13)r(13)-13-(13)--(13)-(13)/-------\11------|
G|--------------------------------------------------------|
D|--------------------------------------------------------|
A|--------------------------------------------------------|
E|--------------------------------------------------------|

(Gtrs 2, 3)
                                |----------6----------|
   E.     S  +E        E  +Q     E        +S     +S  S S
e|--------------------------------------------------------|
B|----------------------3--(3)----------------------------|
G|--5------5--(5)-------4--(4)----------------------------|
D|--5------5--(5)-------5--(5)----4--------(4)b5r=(4)p2p0-|
A|--3------3--(3)-------3--(3)----------------------------|
E|--------------------------------------------------------|

   E5           D5E5    C5  D5                          Gb         D
              ~~~~~~~~                                ~~~~~~~
    E.  S +E  E   +Q.     E      E      +S    S  +E   E  +Q.          +E
e|----------------------------|---------------------------------------------|
B|-10-------------------/15---|-15b17==(15)r-13-(13)-13-(13)---------(13)\--|
G|-----\7-(7)-7---(7)---------|---------------------------------------------|
D|----------------------------|---------------------------------------------|
A|----------------------------|---------------------------------------------|
E|----------------------------|---------------------------------------------|

    Q     +E.   S  Q.     S S    H                        E   +E   E  +E
e|----------------------------|---------------------------------------------|
B|----------------------------|---------------------------------------------|
G|----------------------------|--------------------------11--(11)\-7--(7)\--|
D|------------------------5s7-|--7------------------------------------------|
A|--2-----(2)p==0--2------3s5-|--5------------------------9---(9)\-5--(5)\--|
E|--2-----(2)p==0--2----------|---------------------------------------------|

   E5                   E5                   F5
                         ~~~~~~~~~~~~~
    E.  S  +S   T  T  S  S  +Q    +S    S  S  S
e|----------------------------------------------|
B|-10--10-(10)h11p10----10-(10)--(10)-/10-10-10-|
G|-------------------12-------------------------|
D|----------------------------------------------|
A|----------------------------------------------|
E|----------------------------------------------|

    Q      +E.           S   Q.            S  S
e|----------------------------------------------|
B|----------------------------------------------|
G|-----------------------------------------4s=5-|
D|-----------------------------------------2s=3-|
A|--2------(2)p==========0---2-------------2s=3-|
E|--2------(2)p==========0---2-------------2s=3-|

                                                  E5           E55D5
                        ~~~~~~~~~~~~~                         ~~~~~~~~~
    E.     S  +S   +S   E  +Q    +S   +S     E     E. S  +E   E    +Q.           E
e|----------------------------------------------|-----------------------------------|
B|-13b15==13-(13)r(13)-13-(13)--(13)-(13)/-\11--|-10s15-(15)-15---(15)----------15--|
G|----------------------------------------------|-----------------------------------|
D|----------------------------------------------|-----------------------------------|
A|----------------------------------------------|-----------------------------------|
E|----------------------------------------------|-----------------------------------|

    E.     S  +E        E  +Q.               E     Q     +E.    S   E  +E    Q
e|---------0--(0)-------------------------------|-----------------------------------|
B|----------------------3--(3)------------------|-----------------------------------|
G|--5-------------------------------------------|-----------------------------------|
D|--3-------------------------------------------|-----------------------------------|
A|--3-------------------------------------------|--2-----(2)p===0---2--(2)/-12\-----|
E|--3----------------------------------------7\-|--2-----(2)p===0---2--(2)/-12\-----|

   D5     Eb5   D5EEb5     D5EbD5Eb5   D5     Eb5        DEb5  D5EbD5Eb5
(Gtr 5)
                                        \0.5/
    W                                   H                  H
e|-----------------------------------|-----------------------------------|
B|-----------------------------------|-18p================16-------------|
G|-----------------------------------|-----------------------------------|
D|-----------------------------------|-----------------------------------|
A|-----------------------------------|-----------------------------------|
E|-----------------------------------|-----------------------------------|

(Gtr 6)
   \0.5/                               \0.5/
    H                  H                H                  H
e|-----------------------------------|-----------------------------------|
B|-18p================16-------------|-18p================16-------------|
G|-----------------------------------|-18p================17-------------|
D|-----------------------------------|-----------------------------------|
A|-----------------------------------|-----------------------------------|
E|-----------------------------------|-----------------------------------|
                                       H                  H

(Gtrs 2, 3)
    S     S E S S S S  S S S S S S E    S     S E S S S S  S S S S S S E
e|-----------------------------------|-----------------------------------|
B|-----------------------------------|-----------------------------------|
G|-----------------------------------|-----------------------------------|
D|-----------------------------------|-----------------------------------|
A|--0h====1-x-x-0h1-x----x-0h1-0h1-x-|--0h====1-x-x-0h1-x----x-0h1-0h1-x-|
E|--0h====1-x-x-0h1-x----x-0h1-0h1-x-|--0h====1-x-x-0h1-x----x-0h1-0h1-x-|

   D5     Eb5   D5EEb5     D5EbD5EEb5   D5 Eb5  D5 Eb5      D5 Eb5    DD5b5 EDDEb5
    \0.5/
    H                  H                 E    S  S  +S    S  E    +Q             E.        +S
e|------------------------------------|-----------------------------------------------------------|
B|-18p================16--------------|-14h==16-18-(18)-/21s20---(20)-----------20b21r====(20)----|
G|------------------------------------|-----------------------------------------------------------|
D|------------------------------------|-----------------------------------------------------------|
A|------------------------------------|-----------------------------------------------------------|
E|------------------------------------|-----------------------------------------------------------|

    H                  Q.           E    E    S  S  +S    S  E    +Q             E.        +S
e|------------------------------------|-----------------------------------------------------------|
B|-14p================13p==========11-|-11h==13-14-(14)-/18s16---(16)-----------16b18r====(16)----|
G|-15p================13p==========12-|-10h==12-13-(13)-/17s15---(15)-----------15b17r====(15)----|
D|------------------------------------|-----------------------------------------------------------|
A|------------------------------------|-----------------------------------------------------------|
E|------------------------------------|-----------------------------------------------------------|
   H                  Q.           E    E    S  S  +S    S  E    +Q             E.        +S
 
    S     S E S S S S  S S S S S S  E    S S  S  S   S    S  S S   S  S S S      S    S E
e|------------------------------------|-----------------------------------------------------------|
B|------------------------------------|-----------------------------------------------------------|
G|------------------------------------|-----------------------------------------------------------|
D|------------------------------------|-----------------------------------------------------------|
A|--0h====1-x-x-0h1-x----x-0h1-0h1--x-|--0h1--x--0h==1----x--0h1---x--0h1-x------0h===1-x---------|
E|--0h====1-x-x-0h1-x----x-0h1-0h1--x-|--0h1--x--0h==1----x--0h1---x--0h1-x------0h===1-x---------|


   D5 E5    D5E5        D5E5D5E5    D5  E5    D5E5
    >
    W                                +W
e|--------------------------------|-----------------------------------------|
B|-15-----------------------------|-(15)------------------------------------|
G|--------------------------------|-----------------------------------------|
D|--------------------------------|-----------------------------------------|
A|--------------------------------|-----------------------------------------|
E|--------------------------------|-----------------------------------------|

    >
    W                                +W
e|--------------------------------|-----------------------------------------|
B|-17-----------------------------|-(17)------------------------------------|
G|-14-----------------------------|-(14)------------------------------------|
D|--------------------------------|-----------------------------------------|
A|--------------------------------|-----------------------------------------|
E|--------------------------------|-----------------------------------------|

                       PM|                                  ~~~~
                                                               |----6----|
   S S e S S S S S  S  S S S S E     S S e S S S S S  S    +E  S S S S S S
e|--------------------------------|-----------------------------------------|
B|--------------------------------|-----------------------------------------|
G|--------------------------------|-------------------[4]b6r(4)p2-----------|
D|------------------<5>-----------|-------------------------------4p2-------|
A|--0h2-2-x-0h2-2-------0-2-0h2-x-|---0h2-2-x-0h2-2-------------------5p2p0-|
E|--0h2-2-x-0h2-2-------0-2-0h2-x-|---0h2-2-x-0h2-2-------------------------|


   D5    E5    D5E5        D5E5D5E5    D5E5    D5E5  FM7
                                                     <
    +Q       Q       H                 H             H
e|-----------------------------------|---------------0----|
B|-(15)\-----------------------------|---------------1----|
G|-----------------------------------|---------------2----|
D|-----------------------------------|---------------3----|
A|-----------------------------------|--------------------|
E|-----------------------------------|--------------------|

    +Q       Q       H                 W
e|-----------------------------------|--------------------|
B|-(17)\-----------------------------|--------------------|
G|-(14)\-----------------------------|--------------------|
D|-----------------------------------|--------------------|
A|-----------------------------------|--------------------|
E|-----------------------------------|--------------------|

                           PM|
     S   S e S S S S S  S  S S S S E   S S e S S S S H
e|-----------------------------------|--------------------|
B|-----------------------------------|--------------------|
G|-----------------------------------|--------------------|
D|---------------------<5>-----------|--------------------|
A|---0h==2-2-x-0h2-2-------0-2-0h2-x-|-0h2-2-x-0h2-2------|
E|---0h==2-2-x-0h2-2-------0-2-0h2-x-|-0h2-2-x-0h2-2------|

[Verse 2]
   D5 E5                D5E5          D5 E5    D5   E5
(Gtrs 1, 4)
    S  E    +S      +E     S  S  S  S  S  S     +S   S  E
e|--------------------------------------------------------|
B|--------------------------------------------------------|
G|-12s14---(14)b15r(14)---12p10-12s14p12-14b15r(14)p12----|
D|-----------------------------------------------------15-|
A|--------------------------------------------------------|
E|--------------------------------------------------------|

(Gtrs 2, 3)
    S  S E           S  S  S  S  S  S  S  S      S   S  E
e|--------------------------------------------------------|
B|--------------------------------------------------------|
G|--------------------------------------------------------|
D|--------------------------------------------------------|
A|--0h=2-x-----------x--0h=2--x-----x--0h=2------0h==2--x-|
E|--0h=2-x-----------x--0h=2--x-----x--0h=2------0h==2--x-|

   D5 F5          D5F5      D5G5      F5  D5 E5       D5 E5           D5E5     D5   E5
           ~~~~~~~
    E.     S  +H                 S  E.     E     E  S  E     S  +E.      S      +S   S  E
e|--------------------------------------|--------------------------------------------------|
B|--------13-(13)---------------13s15p==|=10-------13h15---/17-(17)-----17pb18r(17)p15s13--|
G|-12-----------------------------------|------/14-----------------------------------------|
D|--------------------------------------|--------------------------------------------------|
A|--------------------------------------|--------------------------------------------------|
E|--------------------------------------|--------------------------------------------------|

    S S E      S  S S S S S S S  E    E    S S   E  S  S S   S   S  S S  S       S   S  E
e|--------------------------------------|--------------------------------------------------|
B|--------------------------------------|--------------------------------------------------|
G|--------------------------------------|--------------------------------------------------|
D|--------------------------------------|--------------------------------------------------|
A|--0h3-x------x--0h3-x---x-0h5--5----3-|--0h2---x--x--0h2---x------x-0h=2-------0h==2--x--|
E|--0h3-x------x--0h3-x---x-0h5--5----3-|--0h2---x--x--0h2---x------x-0h=2-------0h==2--x--|

   D5 F5            D5F5      A5              G5
           ~~~~~~~
    E.     S  +H                     S   E.
e|--------15-(15)-----------------------15b17----|
B|-15--------------------------------------------|
G|-----------------------------------------------|
D|-----------------------------------------------|
A|-----------------------------------------------|
E|-----------------------------------------------|

    S S E      S  S S S S S S +S    +E         E
e|-----------------------------------------------|
B|-----------------------------------------------|
G|-----------------------------------------------|
D|-----------------------------------------------|
A|--0h3-x------x--0h3-x---x-7-(7)b8r(7)--------5-|
E|--0h3-x------x--0h3-x---x-7-(7)b8r(7)--------5-|

  D5    E5                      D5    E5                     D5E5D5 E5
         T     T           T     T           T     T     ~~
                                       |------6-------|
   T  T  T  T  T  T  T  T  T  T  T  T  T  T  T  T  T  T  Q        E    S  T  T
e|-14h17h19p17h19p17p14------------------------------------------------14s11h13-|
B|----------------------17h19p17h19p17p15-------------------------15------------|
G|----------------------------------------17h19p17h19p17p14---------------------|
D|------------------------------------------------------------------------------|
A|------------------------------------------------------------------------------|
E|------------------------------------------------------------------------------|

    S     S     E           S     S     S        S        S S S S  S S  E
e|------------------------------------------------------------------------------|
B|------------------------------------------------------------------------------|
G|------------------------------------------------------------------------------|
D|------------------------------------------------------------------------------|
A|--0h====2-----x-----------x-----0h====2--------x----------x-0h2--0h2--x-------|
E|--0h====2-----x-----------x-----0h====2--------x----------x-0h2--0h2--x-------|

  D5    F5                      D5    F5                        D5      G5      G5          F5
                                                   |-----------7-----------|     |---------7---------|
   T  T  T  T  T  T  T  T  T  T  T  T  T  T  T  T  S  S    S  S    S  S    S  a  S  S  S  S    S  S  S
e|-11h13p11h13p11h13p11h13s15-13h15p13h15p13h15s17-15h17p==15h17p==15h17s==20-18h20p18h20p18h==20p18s17-|
B|------------------------------------------------------------------------------------------------------|
G|------------------------------------------------------------------------------------------------------|
D|------------------------------------------------------------------------------------------------------|
A|------------------------------------------------------------------------------------------------------|
E|------------------------------------------------------------------------------------------------------|

    S     S     E           S     S     S     S     S    S       S       S        E          E
e|------------------------------------------------------------------------------------------------------|
B|------------------------------------------------------------------------------------------------------|
G|------------------------------------------------------------------------------------------------------|
D|------------------------------------------------------------------------------------------------------|
A|--0h====3-----x-----------x-----0h====3-----x----------x-------0h======5--------5----------3----------|
E|--0h====3-----x-----------x-----0h====3-----x----------x-------0h======5--------5----------3----------|

   D5 E5                       D5      E5                   D5      E5   D5      E5
    S  S      +T   T  S  S      +T   T  S  S      +T   T  S  +S      +S   +S      +T   T  E
e|-17-17pb18r(17)p15-17-17pb18r(17)p15-17-17pb18r(17)p15-17-(17)b18r(17)-(17)b18r(17)p15----|
B|---------------------------------------------------------------------------------------18-|
G|------------------------------------------------------------------------------------------|
D|------------------------------------------------------------------------------------------|
A|------------------------------------------------------------------------------------------|
E|------------------------------------------------------------------------------------------|

    S  S       E         S       S      S  S       S      S   S       S    S       S      E
e|------------------------------------------------------------------------------------------|
B|------------------------------------------------------------------------------------------|
G|------------------------------------------------------------------------------------------|
D|------------------------------------------------------------------------------------------|
A|--0h=2-------x---------x-------0h=====2--x--------------x---0h======2----0h======2------x-|
E|--0h=2-------x---------x-------0h=====2--x--------------x---0h======2----0h======2------x-|

   D5 F5              D5F5         A5          G5
           ~~~~~~~~~~~~~~~~~~~~~~
    E.     S      +Q         +Q.                +E
e|--------20b22==(20)-------(20)---------------(20)r\--|
B|-20--------------------------------------------------|
G|-----------------------------------------------------|
D|-----------------------------------------------------|
A|-----------------------------------------------------|
E|-----------------------------------------------------|

    S S E          S  S S S   S  S S +S    +E    E
e|-----------------------------------------------------|
B|-----------------------------------------------------|
G|-----------------------------------------------------|
D|-----------------------------------------------------|
A|--0h3-x----------x--0h3-x------x-7-(7)b8r(7)---5-----|
E|--0h3-x----------x--0h3-x------x-7-(7)b8r(7)---5-----|

  D5Bb5          D5 Bb5   Bb5        D5    Bb5  D5 Bb5
(Gtrs 1, 4)
                                      |---3---|
  S   S  S  S  S  S  S  a  S  +S   S  S  S    S  S  S  S  S
e|---/18s16p15-----------------------------------------------|
B|-------------18-16-15-18s20-(20)s18-16h18p==16s15----------|
G|--------------------------------------------------17-15----|
D|--------------------------------------------------------18-|
A|-----------------------------------------------------------|
E|-----------------------------------------------------------|

(Gtrs 5, 6)
                                      |---3---|
  S   S  S  S  S  S  S  a  S  +S   S  S  S    S  S  S  S  S
e|-----------------------------------------------------------|
B|---/11s=9p=8-----------------------------------------------|
G|-------------10--8--7-10s12-(12)s10--8h10p===8s=7----------|
D|--------------------------------------------------10--8----|
A|--------------------------------------------------------11-|
E|-----------------------------------------------------------|

(Gtrs 2, 3)
   S   S  e     S  S  S     S   S   S  S    S     S  S  e
e|-----------------------------------------------------------|
B|-----------------------------------------------------------|
G|-----------------------------------------------------------|
D|-----------------------------------------------------------|
A|-0h==8--8-----x--0h=8-----8-------x--0h===8-----0h=8--8----|
E|-0h==8--8-----x--0h=8-----8-------x--0h===8-----0h=8--8----|

   D5 A5        D5 A5                 D5A5     A5
    E.     S  S  S  S  +S       +Q          E     +E
e|-----------20----------------------------------------|
B|--------18-------------------------------------------|
G|--------------17-17-(17)b19==(17)-------[17]r==(17)\-|
D|-17--------------------------------------------------|
A|-----------------------------------------------------|
E|-----------------------------------------------------|

    E.     S  S  S  S  +S       +Q          E     +E
e|-----------------------------------------------------|
B|-----------13----------------------------------------|
G|--------10-------------------------------------------|
D|--------------10-10-(10)b12==(10)-------[10]r==(10)\-|
A|-10--------------------------------------------------|
E|-----------------------------------------------------|

    S S e     S  S  S   S        S  S S S   S  S   e
e|-----------------------------------------------------|
B|-----------------------------------------------------|
G|-----------------------------------------------------|
D|-----------------------------------------------------|
A|--0h7-7-----x--0h=7---7-----------x-0h7---0h=7---7---|
E|--0h7-7-----x--0h=7---7-----------x-0h7---0h=7---7---|

   D5Bb5   Bb5        D5 Bb5              D5    Bb5   D5 Bb5
(Gtr 1)
   S  S     +S   S  S  S  S  S      +E.          T  T  S  S  S  S
e|----------------------------------------------------------------|
B|---15b17r(15)-13------------------------------------------------|
G|-----------------15-13-12-15b17==(15)r--------15p13p12----------|
D|-------------------------------------------------------15-13----|
A|-------------------------------------------------------------15-|
E|----------------------------------------------------------------|

                            ~~~~~~~~~~~~
   S  S     +S   S  S  S  S  S      +E     +S    T  T  S  S  S  S
e|---18b20r(18)p16------------------------------------------------|
B|---20b21r(20)p18-20-18-16-20b21==(20)r==(20)h=21p20p18----------|
G|-----------------20-19-17-20b22==(20)---(20)r-19p17p15-20-19h20-|
D|-------------------------------------------------------18-17h18-|
A|----------------------------------------------------------------|
E|----------------------------------------------------------------|

   S  S      e      S  S  S  S       S  S   S    S     S  S  E
e|----------------------------------------------------------------|
B|----------------------------------------------------------------|
G|----------------------------------------------------------------|
D|----------------------------------------------------------------|
A|-0h=8------8------x--0h=8--8----------x---0h===8-----0h=8--8----|
E|-0h=8------8------x--0h=8--8----------x---0h===8-----0h=8--8----|

   A5           Eb5
                 ~~~~~~~~~~~
    E.  S  +E    E      +Q.        +E
e|---------------------------------------|
B|---------------------------------------|
G|---------------------------------------|
D|---------------------------------------|
A|-13--15-(15)--16-----(16)-------(16)\--|
E|---------------------------------------|

                 ~~~~~~~~~~~
    E.  S  +E    E      +Q.        +E
e|---------------------------------------|
B|---------------------------------------|
G|-19--20-(20)--20b22==(20)-------(20)r\-|
D|-17--18-(18)--20b22==(20)-------(20)r\-|
A|---------------------------------------|
E|---------------------------------------|

    E.  S  +E    E      +Q     Q
e|---------------------------------------|
B|---------------------------------------|
G|---------------------------------------|
D|---------------1------(1)--------------|
A|--7---7--(7)\--1------(1)--------------|
E|--7---7--(7)\--1------(1)--/12\--------|

[Chorus 2, 3]
  $
  E5                D5E5               E5 F5
(Gtr 5)
                  ~~~~~~~~~
   E.  S  +S   S  E    +Q    +S   T  T  S  S
e|-17--17-(17)h18-17---(17)--(17)h18p17----17-|
B|--------------------------------------20----|
G|--------------------------------------------|
D|--------------------------------------------|
A|--------------------------------------------|
E|--------------------------------------------|

(Gtr 6)
                   ~~~~~~~~~
    E.  S  +S   S  E    +Q    +S   T  T  S  S
e|--------------------------------------------|
B|-10--10-(10)h11-10---(10)--(10)h11p10----10-|
G|--------------------------------------12----|
D|--------------------------------------------|
A|--------------------------------------------|
E|--------------------------------------------|

    Q      +E.       S   Q.              S  S
e|--------------------------------------------|
B|--------------------------------------------|
G|---------------------------------------4s=5-|
D|---------------------------------------2s=3-|
A|--2------(2)p======0---2---------------2s=3-|
E|--2------(2)p======0---2---------------2s=3-|

  C5                CM7sus2
                         ~~~~~~~~
                                            |--3---|
   E.    S      +E   S  +S   +Q.            S   S  S
e|-20b22-20b22==(20)-20r(20)-(20)-----------18h=20p18-|
B|----------------------------------------------------|
G|----------------------------------------------------|
D|----------------------------------------------------|
A|----------------------------------------------------|
E|----------------------------------------------------|

                         ~~~~~~~~
                                            |--3---|
   E.    S      +E   S  +S   +Q.            S   S  S
e|----------------------------------------------------|
B|-13b15-13b15==(13)-13r(13)-(13)-----------11h=13p11-|
G|----------------------------------------------------|
D|----------------------------------------------------|
A|----------------------------------------------------|
E|----------------------------------------------------|

                                  |-------6--------|
   E.    S      +E   E       +Q   E    +S  +S   S  S
E|----------------------------------------------------|
B|--------------------3-------(3)---------------------|
G|--5-----5------(5)--4-------(4)---------------------|
D|--5-----5------(5)--5-------(5)--4b5==(4)r(4)p=2p=0-|
A|--3-----3------(3)--3-------(3)---------------------|
E|----------------------------------------------------|

   E5              D5E5     C5  D5
                 ~~~~~~~~~
    E.   S  +E   E    +Q.     E
e|-17-----------------------/22---|
B|-----\15-(15)-15---(15)---------|
G|--------------------------------|
D|--------------------------------|
A|--------------------------------|
E|--------------------------------|

                 ~~~~~~~~~
    E.   S  +E   E    +Q.     E
e|--------------------------------|
B|-10-----------------------/15---|
G|------\7--(7)--7----(7)---------|
D|--------------------------------|
A|--------------------------------|
E|--------------------------------|

    Q       +E.    S   Q.     S S
e|--------------------------------|
B|--------------------------------|
G|--------------------------------|
D|----------------------------5s7-|
A|--2-------(2)p===0---2------3s5-|
E|--2-------(2)p===0---2----------|

                    Gb                  D
    E.    S  +E   E  +S   T  T   S    S  S  T  T  S    S
e|-22b24-20-(20)-20-(20)h22p20s=18---20-18h20p18s17---18-|
B|-------------------------------------------------------|
G|-------------------------------------------------------|
D|-------------------------------------------------------|
A|-------------------------------------------------------|
E|-------------------------------------------------------|

    E.    S  +E   E  +S   T  T   S    S  S  T  T  S    S
e|-------------------------------------------------------|
B|-15b17-13-(13)-13-(13)h15p13s=11---13-11h13p11s10---11-|
G|-------------------------------------------------------|
D|-------------------------------------------------------|
A|-------------------------------------------------------|
E|-------------------------------------------------------|

    H                 E         +E       E       +E
e|-------------------------------------------------------|
B|-------------------------------------------------------|
G|-------------------11--------(11)\-----7-------(7)\----|
D|--7----------------------------------------------------|
A|--5-----------------9---------(9)\-----5-------(5)\----|
E|-------------------------------------------------------|

   E5                     D5      E5                        F5
                                    ~~~~~~~~~~~~~~~~~~
    E.     S  +S   S  +S   +S      +S   +E.      +S    S  S  S
e|--------20-(20)-------------------------------------17-17-17-|
B|-20b22==========20r(20)-(20)b22r(20)-(20)b22==(20)r----------|
G|-------------------------------------------------------------|
D|-------------------------------------------------------------|
A|-------------------------------------------------------------|
E|-------------------------------------------------------------|

                                    ~~~~~~~~~~~~~~~~~~
    E.     S  +S   S  +S   +S      +S   +E.      +S    S  S  S
e|-------------------------------------------------------------|
B|--------13-(13)-------------------------------------10-10-10-|
G|-12b14==========12r(12)-(12)b14r(12)-(12)b14==(12)r----------|
D|-------------------------------------------------------------|
A|-------------------------------------------------------------|
E|-------------------------------------------------------------|

    Q         +E.           S       Q.                    S  S
e|-------------------------------------------------------------|
B|-------------------------------------------------------------|
G|--------------------------------------------------------4s=5-|
D|--------------------------------------------------------2s=3-|
A|--2---------(2)p==========0-------2---------------------2s=3-|
E|--2---------(2)p==========0-------2---------------------2s=3-|


[To Coda]
                                           E5            D5E5        D5
                      ~~~~~~~                          ~~~~~~~~~
                                |--3---|
   E.    S      +E    E  +Q.    S   S  S    E. S  +E   E    +Q.           E
e|-20b22-20b22==(20)r-20-(20)---18h=20p18-|-17s22-(22)-22---(22)----------22---|
B|----------------------------------------|------------------------------------|
G|----------------------------------------|------------------------------------|
D|----------------------------------------|------------------------------------|
A|----------------------------------------|------------------------------------|
E|----------------------------------------|------------------------------------|

                      ~~~~~~~                          ~~~~~~~~~
                                |--3---|
   E.    S      +E    E  +Q.    S   S  S    E. S  +E   E    +Q.           E
e|----------------------------------------|------------------------------------|
B|-13b15-13b15==(13)r-13-(13)---11h=13p11-|-10s15-(15)-15---(15)----------15---|
G|----------------------------------------|------------------------------------|
D|----------------------------------------|------------------------------------|
A|----------------------------------------|------------------------------------|
E|----------------------------------------|------------------------------------|

    E.    S      +E    E  +Q.    E           Q     +E.    S   E  +E    Q
e|--------0------(0)----------------------|------------------------------------|
B|---------------------3--(3)-------------|------------------------------------|
G|--5-------------------------------------|------------------------------------|
D|--3-------------------------------------|------------------------------------|
A|--3-------------------------------------|--2-----(2)p===0---2--(2)/-12\------|
E|--3----------------------------7\-------|--2-----(2)p===0---2--(2)/-12\------|

   D5    Eb5   D5Eb5      D5EbD5Eb5   D5 Eb5   D5Eb5      D5EbD5Eb5
    H                 H                H              H
e|-24b25-------------23-------------|-21p============20-------------|
B|-21p===============20-------------|-18p============16-------------|
G|----------------------------------|-------------------------------|
D|----------------------------------|-------------------------------|
A|----------------------------------|-------------------------------|
E|----------------------------------|-------------------------------|
   H                 H                H              H
 
    H                 H                H              H
e|-20p===============18-------------|-16p============15-------------|
B|-18p===============16-------------|-14p============13-------------|
G|----------------------------------|-------------------------------|
D|----------------------------------|-------------------------------|
A|----------------------------------|-------------------------------|
E|----------------------------------|-------------------------------|
   H                 H                H              H

    S    S E S S S S  S S S S S S E    S S E S S S S  S S S S S S E
e|----------------------------------|-------------------------------|
B|----------------------------------|-------------------------------|
G|----------------------------------|-------------------------------|
D|----------------------------------|-------------------------------|
A|--0h===1-x-x-0h1-x----x-0h1-0h1-x-|--0h1-x-x-0h1-x----x-0h1-0h1-x-|
E|--0h===1-x-x-0h1-x----x-0h1-0h1-x-|--0h1-x-x-0h1-x----x-0h1-0h1-x-|

   D5 Eb5   D5Eb5      D5EbD5Eb5    D5 Eb5  D5 Eb5      D5 Eb5    D5Eb5 D5    Eb5
    H              Q.           E    E    S  S  +S    S  E    +Q         E.        +S
e|-18p============16p==========15-|-13h==15-16-(16)-/20s18---(18)-------18b20r====(18)----|
B|-14p============13p==========11-|-11h==13-14-(14)-/18s16---(16)-------16b18r====(16)----|
G|--------------------------------|-------------------------------------------------------|
D|--------------------------------|-------------------------------------------------------|
A|--------------------------------|-------------------------------------------------------|
E|--------------------------------|-------------------------------------------------------|
   H              Q.           E    E    S  S  +S    S  E    +Q         E.        +S

    H              Q.           E    E    S  S  +S    S  E    +Q         E.        +S
e|--------------------------------|-------------------------------------------------------|
B|-18p============16p==========13-|-14h==16-18-(18)-/21s20---(20)-------20b21r====(20)----|
G|-15p============13p==========12-|-10h==12-13-(13)-/17s15---(15)-------15b17r====(15)----|
D|--------------------------------|-------------------------------------------------------|
A|--------------------------------|-------------------------------------------------------|
E|--------------------------------|-------------------------------------------------------|
   H              Q.           E    E    S  S  +S    S  E    +Q         E.        +S

    S S E S S S S  S S S S S S  E    S S  S  S   S    S  S S   S  S S S  S    S E
e|--------------------------------|-------------------------------------------------------|
B|--------------------------------|-------------------------------------------------------|
G|--------------------------------|-------------------------------------------------------|
D|--------------------------------|-------------------------------------------------------|
A|--0h1-x-x-0h1-x----x-0h1-0h1--x-|--0h1--x--0h==1----x--0h1---x--0h1-x--0h===1-x---------|
E|--0h1-x-x-0h1-x----x-0h1-0h1--x-|--0h1--x--0h==1----x--0h1---x--0h1-x--0h===1-x---------|

   E5
(Gtrs 5, 6)
    W                            +W
e|-17-------------------------|-(17)------------------------|
B|-17-------------------------|-(17)------------------------|
G|-19-------------------------|-(19)------------------------|
D|-19-------------------------|-(19)------------------------|
A|----------------------------|-----------------------------|
E|----------------------------|-----------------------------|

(Gtr 3)
    W                            +W
e|----------------------------|-----------------------------|
B|----------------------------|-----------------------------|
G|----------------------------|-----------------------------|
D|--2-------------------------|--(2)------------------------|
A|--2-------------------------|--(2)------------------------|
E|--2-------------------------|--(2)------------------------|

(Gtr 2)
    S S e S S S S E S S S S e     S S e S S S S E S S S S e
e|----------------------------|-----------------------------|
B|----------------------------|-----------------------------|
G|----------------------------|-----------------------------|
D|----------------------------|-----------------------------|
A|----------------------------|-----------------------------|
E|--0h2-2---0h2-2---0h2-0h2-2-|---0h2-2---0h2-2---0h2-0h2-2-|

                                                   \4
    +W                            +H              +H
e|-(17)------------------------|-(17)------------(17)----------|
B|-(17)------------------------|-(17)------------(17)----------|
G|-(19)------------------------|-(19)------------(19)----------|
D|-(19)------------------------|-(19)------------(19)----------|
A|-----------------------------|-------------------------------|
E|-----------------------------|-------------------------------|

(Gtr 1)
     ~~~~~~~~~~~~~~~~~~~~~~~~~~~~~~~~~
     W                            +H               Q   S S  E
e|-----------------------------|-------------------------------|
B|---0-------------------------|--(0)--------------------------|
G|-----------------------------|-------------------------------|
D|--(2)------------------------|--(2)--------------------x/-x\-|
A|--(2)------------------------|--(2)--------------------x/-x\-|
E|--(2)------------------------|--(2)--------------------------|

     S S e S S S S E S S S S e     S S e S S S S   H
e|-----------------------------|-------------------------------|
B|-----------------------------|-------------------------------|
G|-----------------------------|-------------------------------|
D|-----------------------------|-------------------------------|
A|-----------------------------|-------------------------------|
E|---0h2-2---0h2-2---0h2-0h2-2-|---0h2-2---0h2-2---------------|

[Solo 1]
  N.C.
  (Gtr 1)
           T        T                                       ~~~~~~~~~~~~
           |------6-------|                  |--3--|                       |--3--|
  S  T  T  T  T  T  T  T  T  E       +S   S  S  S  S  T  T  S      +E      S  S  S
e|---10h13h15p13p10-----------------------10-------------------------------10-------|
B|------------------15p13p10h13b15---(13)----13p10----13p10-------------------13p10-|
G|-------------------------------------------------11-------12b14==(12)r------------|
D|----------------------------------------------------------------------------------|
A|----------------------------------------------------------------------------------|
E|----------------------------------------------------------------------------------|

(Gtrs 2, 3)
   S  S     e                 S    S   S   S  E        S     S       S   S  e
e|----------------------------------------------------------------------------------|
B|----------------------------------------------------------------------------------|
G|----------------------------------------------------------------------------------|
D|----------------------------------------------------------------------------------|
A|----------------------------------------------------------------------------------|
E|-0h=2-----2----------------------0h==2---2-----------0h====2-------0h==2--2-------|

                                                  ~~~
                  |--------6---------|
   E.        +S   S  S    S  S  S    S  S S  S S  E.    +S
e|------------------------------------------------------------|
B|-11b13r====(11)p10------------------------------------------|
G|-------------------12p==10----------------------------------|
D|---------------------------12p10----------------------------|
A|-----------------------------------12s10-8s12s8-10----(10)\-|
E|------------------------------------------------------------|

                                                  ~~~
    S    S e       S    S     S    S     E    S S  E  E
e|------------------------------------------------------------|
B|------------------------------------------------------------|
G|------------------------------------------------------------|
D|------------------------------------------------------------|
A|------------------------------------------------------------|
E|--0h===3-3------------0h====3----3----------0h5--5--3-------|

     \1___/   |                      \1____/   |         \1____/
                                                    ~~~~
   S a   +S   S   S  S  E     S  S   S    +S  +S   +E    a    +E
e|---------------10--8-(8)s==13-13-(13)--(13)(13)-(13)------------|
B|---5---(5)s13-(13)---10s===15-----15---(15)(15)-(15)--15---(15)s|
G|-x--------------------------------------------------------------|
D|-x--------------------------------------------------------------|
A|----------------------------------------------------------------|
E|----------------------------------------------------------------|

   S      S   e      S  S  S  S  E         S   S    S S        e
e|----------------------------------------------------------------|
B|----------------------------------------------------------------|
G|----------------------------------------------------------------|
D|----------------------------------------------------------------|
A|----------------------------------------------------------------|
E|-0h=====2---2---------0h=2--2------------0h==2----0h2--------2--|

    |     \0.5____/   |                        \1/   \1/   \1/         \2____|
    S  S  a      +S   S  T  T  S  T  T  S  S  +S    +S    +S     +E   +S  a +S
e|----15----------------17-17----20p17----17-(17)--(17)--(17)---(17)-(17)p0-(0)---|
B|-18----18-----(18)s20-------20-------20-20-(20)--(20)--(20)---(20)-(20)---------|
G|--------------------------------------------------------------------------------|
D|--------------------------------------------------------------------------------|
A|--------------------------------------------------------------------------------|
E|--------------------------------------------------------------------------------|

    S  S          e      S     S  S     S  E         S    +S     +E    E
e|--------------------------------------------------------------------------------|
B|--------------------------------------------------------------------------------|
G|--------------------------------------------------------------------------------|
D|--------------------------------------------------------------------------------|
A|--------------------------------------------------------------------------------|
E|--0h=3----------3------------0h=3-----3------------7----(7)b8r=(7)---5----------|

  |--------3---------|          |-------------------5-------------------|     |--------3---------|
  E     a     +E     E   a     +E     E       a     +E     E     a     +E     E     a     +E     E
e|--------------------------------------------------------------------------------------------------|
B|-------------------15---------------15-------------------15-----------------15-----------------15-|
G|-----/19b21-(19)------/19b22-(19)----------/19b22-(19)--------/19b22-(19)--------/19b22-(19)------|
D|--------------------------------------------------------------------------------------------------|
A|--------------------------------------------------------------------------------------------------|
E|--------------------------------------------------------------------------------------------------|

   S S             e             S  S    S S             E    S             S  S S             e
e|--------------------------------------------------------------------------------------------------|
B|--------------------------------------------------------------------------------------------------|
G|--------------------------------------------------------------------------------------------------|
D|--------------------------------------------------------------------------------------------------|
A|--------------------------------------------------------------------------------------------------|
E|-0h2-------------2----------------0h===2-2------------------0h============2--0h2-------------2----|

                                                         \1
              ~~~~~~~~~                         ~~~~~~~
    E        +E   +E.        S       +S   S  S  S  +E   +S   S
e|-------------------------------------------------------------|
B|-18b22====(18)-(18)r-----[18]pb22r(18)-15--------------------|
G|------------------------------------------17-----------------|
D|---------------------------------------------15-(15)-(15)/---|
A|-------------------------------------------------------------|
E|-------------------------------------------------------------|

                                                    ~~~~
    S     S   e    S   S S   S        E      S  S   E    E
e|-------------------------------------------------------------|
B|-------------------------------------------------------------|
G|-------------------------------------------------------------|
D|-------------------------------------------------------------|
A|-------------------------------------------------------------|
E|--0h====3---3--------0h3---3---------------0h=5---5----3-----|

   T  T T  T T  T T  T T  T T  T S      S T  T T  T T  T T  T T  T T  T  E
e|-8h11p8---------8h11p8---------------------------------------------------|
B|--------10p9h10--------10p9-------------9h12p9---------9h12p9------------|
G|----------------------------10-9b9.5-10--------10p9h10--------10p9-------|
D|-------------------------------------------------------------------11-10-|
A|-------------------------------------------------------------------------|
E|-------------------------------------------------------------------------|

   S    S    e         S    S    S      S E         S    S    S    S     e
e|-------------------------------------------------------------------------|
B|-------------------------------------------------------------------------|
G|-------------------------------------------------------------------------|
D|-------------------------------------------------------------------------|
A|-------------------------------------------------------------------------|
E|-0h===2----2--------------0h===2------2-----------0h===2----0h===2-----2-|

                                                             ~~~~~~~~~~~~~
                                                         |-3-|
   T  T T  T S  T  T  T  T  T  T  T  T  T  T  T  T   S  +S   E        +Q
e|----------------------------------11h15p11-------/20-(20)-20-------(20)------|
B|-------------------10h13p10s11h13----------13p11-----------------------------|
G|------8h11p8s10h11-----------------------------------------------------------|
D|-8h10------------------------------------------------------------------------|
A|-----------------------------------------------------------------------------|
E|-----------------------------------------------------------------------------|
 
   S    S    e        S     S     S     S     E          S     +S     +E  E
e|-----------------------------------------------------------------------------|
B|-----------------------------------------------------------------------------|
G|-----------------------------------------------------------------------------|
D|-----------------------------------------------------------------------------|
A|-----------------------------------------------------------------------------|
E|-0h===3----3--------------0h====3-----3----------------7-----(7)b8r=(7)-5----|

            |-3-|
    +S   S  S S S  S  S  T  T  T  T  S  S  S  S    S  E    +S
e|-(20)\--------8-11s18-15----------------------------------------|
B|------------9------------16-------------------------------------|
G|---------10-----------------17----17s12-10-13b15---12---(12)b13-|
D|-------8-----------------------15-------------------------------|
A|----------------------------------------------------------------|
E|----------------------------------------------------------------|

     S   S  e      S  S  S     S     E     S  S    S  S e
e|----------------------------------------------------------------|
B|----------------------------------------------------------------|
G|----------------------------------------------------------------|
D|----------------------------------------------------------------|
A|----------------------------------------------------------------|
E|---0h==8--8---------0h=8-----8-----------0h=8----0h=8-8---------|

   ~~~~~~~~~~~~~~~~                                    ~~~
               |----3-----|            |--3---|
   Q          +S   +S     S  S  S     +S   S  S  S  S  Q
e|--------------------------------------------------------------|
B|-13b15======(13)r(13)p==11------------------------------------|
G|---------------------------13-12b13r(12)p10----10h12----------|
D|--------------------------------------------13-------10-------|
A|--------------------------------------------------------------|
E|--------------------------------------------------------------|

    S     S e   S       S     S  S      E         S  S  S S e
e|--------------------------------------------------------------|
B|--------------------------------------------------------------|
G|--------------------------------------------------------------|
D|--------------------------------------------------------------|
A|--------------------------------------------------------------|
E|--0h====7-7-----------0h====7--7----------------0h=7--0h7-7---|

    |------------9:8-------------|  |-------------9:8-------------|
   +T   T  T    T  T    T  T  T  T  T  T  T    T  T    T  T    T  T  T  T  T |
e|---------------------------------------------11h13h==15------------13h15h16-|
B|----------------------------------11h13h15--------------13h==15h16----------|
G|--------------10h12h==13-12h13h15-------------------------------------------|
D|-(10)h12h13-----------------------------------------------------------------|
A|----------------------------------------------------------------------------|
E|----------------------------------------------------------------------------|

   T  T  T  T  T  T  T  T  T  S  S
e|---------15h16h18----------16-18b20-|
B|15h16h18----------16h18h20----------|
G|------------------------------------|
D|------------------------------------|
A|------------------------------------|
E|------------------------------------|

     S        S       e              S       S       S       S        E           S     S     S     S     e
e|-----------------------------------------------------------------------------------------------------------|
B|-----------------------------------------------------------------------------------------------------------|
G|-----------------------------------------------------------------------------------------------------------|
D|-----------------------------------------------------------------------------------------------------------|
A|-----------------------------------------------------------------------------------------------------------|
E|---0h=======8-------8----------------------0h======8-------8--------------------0h====8-----0h====8-----8--|

                               ~~~~~~~~~~~
    |--3---|    |-----3-----|
   +e   e  e    S      +S   S  E      +Q.    +E
e|-(18)-18-16---18pb19r(18)p16-19b21==(19)---(19)r\-|
B|--------------------------------------------------|
G|--------------------------------------------------|
D|--------------------------------------------------|
A|--------------------------------------------------|
E|--------------------------------------------------|

     E.       S +E              E      +H
e|--------------------------------------------------|
B|--------------------------------------------------|
G|--------------------------------------------------|
D|--------------------------------------------------|
A|--------------------------------------------------|
E|---7--------7-(7)\------------1------(1)----------|

[Solo 2]
  E5
(Gtrs 1, 4)
   |
    T  T  T  T  T  T  T  T  T  T  T  T  T  T  T  T  T  T  T  T  T  T  T  T  T  T  T  T  T  T  T  T
e|----10----------10----------10----------10----------10----------10----------10----------10--------|
B|-13----------------13----------------13----------------13----------------13----------13-----------|
G|-------12----------------12----------------12----------------12----------------12----------12-----|
D|----------10----------10----------10----------10----------10----------10----------10----------10--|
A|-------------12----------------12----------------12----------------12-----------------------------|
E|--------------------------------------------------------------------------------------------------|

(Gtr 2)
    S     S     e           S     S     S     S     E           S     S     S     S     e
e|--------------------------------------------------------------------------------------------------|
B|--------------------------------------------------------------------------------------------------|
G|--------------------------------------------------------------------------------------------------|
D|--------------------------------------------------------------------------------------------------|
A|--------------------------------------------------------------------------------------------------|
E|--0h====2-----2-----------------0h====2-----2-----------------0h====2-----0h====2-----2-----------|

(Gtr 3)
    W
e|--------------------------------------------------------------------------------------------------|
B|--------------------------------------------------------------------------------------------------|
G|--------------------------------------------------------------------------------------------------|
D|--2-----------------------------------------------------------------------------------------------|
A|--2-----------------------------------------------------------------------------------------------|
E|--2-----------------------------------------------------------------------------------------------|

   F5
    T T  T T  T T  T T  T T  T T  T T  T T  T T  T T  T T  T T  T T  T T  T T  T T
e|----8---------8---------8---------8---------8---------8---------8---------8-------|
B|-15-------------15-------------15-------------15-------------15--------15---------|
G|------15-------------15-------------15-------------15-------------15--------15----|
D|---------8---------8---------8---------8---------8---------8---------8---------8--|
A|-----------15-------------15-------------15-------------15------------------------|
E|----------------------------------------------------------------------------------|

                                                                ~~
    S    S    e         S    S    S    S    E         S    S    E         E
e|----------------------------------------------------------------------------------|
B|----------------------------------------------------------------------------------|
G|----------------------------------------------------------------------------------|
D|----------------------------------------------------------------------------------|
A|----------------------------------------------------------------------------------|
E|--0h===3----3--------------0h===3----3--------------0h===5----5---------3---------|

    W
e|----------------------------------------------------------------------------------|
B|----------------------------------------------------------------------------------|
G|----------------------------------------------------------------------------------|
D|--3-------------------------------------------------------------------------------|
A|--3-------------------------------------------------------------------------------|
E|--3-------------------------------------------------------------------------------|

   E5
    T  T  T  T  T  T  T  T  T  T  T  T  T  T  T  T  T  T  T  T  T  T  T  T  T  T  T  T  T  T  T  T
e|----10----------10----------10----------10----------10----------10----------10----------10--------|
B|-17----------------17----------------17----------------17----------------17----------17-----------|
G|-------17----------------17----------------17----------------17----------------17----------17-----|
D|----------12----------12----------12----------12----------12----------12----------12----------12--|
A|-------------17----------------17----------------17----------------17-----------------------------|
E|--------------------------------------------------------------------------------------------------|

    S     S     e           S     S     S     S     E           S     S     S     S     e
e|--------------------------------------------------------------------------------------------------|
B|--------------------------------------------------------------------------------------------------|
G|--------------------------------------------------------------------------------------------------|
D|--------------------------------------------------------------------------------------------------|
A|--------------------------------------------------------------------------------------------------|
E|--0h====2-----2-----------------0h====2-----2-----------------0h====2-----0h====2-----2-----------|

    W
e|--------------------------------------------------------------------------------------------------|
B|--------------------------------------------------------------------------------------------------|
G|--------------------------------------------------------------------------------------------------|
D|--2-----------------------------------------------------------------------------------------------|
A|--2-----------------------------------------------------------------------------------------------|
E|--2-----------------------------------------------------------------------------------------------|

   F5
    T  T  T  T  T  T  T  T  T  T  T  T  T  T  T  T  T  T  T  T  T  T  T     T  T   T  T  T  T  T  T  T
e|----17----------15----------13----------10----------13----------15--------------17----------17--------|
B|-20----------------20----------------20----------------20-------------------20-----------20-----------|
G|-------19----------------19----------------19----------------19--------------------19----------19-----|
D|----------17----------15----------13----------10----------13-------------15-----------17----------17--|
A|-------------18----------------18----------------18----------------18---------------------------------|
E|------------------------------------------------------------------------------------------------------|

    S     S     e           S     S     S     S     E           S    +S       +E            E
e|------------------------------------------------------------------------------------------------------|
B|------------------------------------------------------------------------------------------------------|
G|------------------------------------------------------------------------------------------------------|
D|------------------------------------------------------------------------------------------------------|
A|------------------------------------------------------------------------------------------------------|
E|--0h====3-----3-----------------0h====3-----3-----------------7----(7)b8r===(7)-----------5-----------|

    W
e|------------------------------------------------------------------------------------------------------|
B|------------------------------------------------------------------------------------------------------|
G|------------------------------------------------------------------------------------------------------|
D|--3---------------------------------------------------------------------------------------------------|
A|--3---------------------------------------------------------------------------------------------------|
E|--3---------------------------------------------------------------------------------------------------|

   E5
    T  T  T  T  T  T  T  T  T  T  T  T  T  T  T  T  T  T  T  T  T  T  T  T  T  T  T  T  T  T  T  T
e|----14----------14----------14----------14----------14----------14----------14----------14--------|
B|-19----------------19----------------19----------------19----------------19----------19-----------|
G|-------17----------------17----------------17----------------17----------------17----------17-----|
D|----------14----------14----------14----------14----------14----------14----------14----------14--|
A|-------------15----------------15----------------15----------------15-----------------------------|
E|--------------------------------------------------------------------------------------------------|

    S     S     e           S     S     S     S     E           S     S     S     S     e
e|--------------------------------------------------------------------------------------------------|
B|--------------------------------------------------------------------------------------------------|
G|--------------------------------------------------------------------------------------------------|
D|--------------------------------------------------------------------------------------------------|
A|--------------------------------------------------------------------------------------------------|
E|--0h====2-----2-----------------0h====2-----2-----------------0h====2-----0h====2-----2-----------|

    W
e|--------------------------------------------------------------------------------------------------|
B|--------------------------------------------------------------------------------------------------|
G|--------------------------------------------------------------------------------------------------|
D|--2-----------------------------------------------------------------------------------------------|
A|--2-----------------------------------------------------------------------------------------------|
E|--2-----------------------------------------------------------------------------------------------|

   F5
    T  T  T  T  T  T  T  T  T  T  T  T  T  T  T  T  T  T  T  T  T  T  T  T  T  T  T  T  T  T  T  T
e|----13----------13----------13----------13----------13----------13----------13----------13--------|
B|-16----------16----------18----------18----------20----------20----------20----------20-----------|
G|-------15----------15----------17----------17----------19----------19----------19----------19-----|
D|----------13----------13----------13----------13----------13----------13----------13----------13--|
A|--------------------------------------------------------------------------------------------------|
E|--------------------------------------------------------------------------------------------------|

                                                                            ~~
    S     S     e           S     S     S     S     E           S     S     E           E
e|--------------------------------------------------------------------------------------------------|
B|--------------------------------------------------------------------------------------------------|
G|--------------------------------------------------------------------------------------------------|
D|--------------------------------------------------------------------------------------------------|
A|--------------------------------------------------------------------------------------------------|
E|--0h====3-----3-----------------0h====3-----3-----------------0h====5-----5-----------3-----------|

    W
e|--------------------------------------------------------------------------------------------------|
B|--------------------------------------------------------------------------------------------------|
G|--------------------------------------------------------------------------------------------------|
D|--3-----------------------------------------------------------------------------------------------|
A|--3-----------------------------------------------------------------------------------------------|
E|--3-----------------------------------------------------------------------------------------------|

   E5
    T  T  T  T  T  T  T  T  T  T  T  T  T  T  T  T  T  T  T  T  T  T  T  T  T  T  T  T  T  T  T  T
e|----10----------10----------10----------10----------10----------10----------10----------10--------|
B|-17----------------17----------------17----------------17----------------18----------18-----------|
G|-------17----------------17----------------17----------------17----------------17----------17-----|
D|----------10----------10----------10----------10----------10----------10----------10----------10--|
A|-------------17----------------17----------------17----------------17-----------------------------|
E|--------------------------------------------------------------------------------------------------|

    S     S     e           S     S     S     S     E           S     S     S     S     e
e|--------------------------------------------------------------------------------------------------|
B|--------------------------------------------------------------------------------------------------|
G|--------------------------------------------------------------------------------------------------|
D|--------------------------------------------------------------------------------------------------|
A|--------------------------------------------------------------------------------------------------|
E|--0h====2-----2-----------------0h====2-----2-----------------0h====2-----0h====2-----2-----------|

    W
e|--------------------------------------------------------------------------------------------------|
B|--------------------------------------------------------------------------------------------------|
G|--------------------------------------------------------------------------------------------------|
D|--2-----------------------------------------------------------------------------------------------|
A|--2-----------------------------------------------------------------------------------------------|
E|--2-----------------------------------------------------------------------------------------------|

   F5
    T  T  T  T  T  T  T  T  T  T  T  T  T  T  T  T  T T  T  T  T T  T     T  T   T  T T  T  T  T T
e|----11----------11----------10----------10----------8----------8--------------10---------10-------|
B|-20----------20----------20----------20----------20---------20------------20----------20----------|
G|-------19----------19----------19----------19---------19---------19--------------19---------19----|
D|----------13----------13----------12----------12---------10------------10-----------8----------8--|
A|--------------------------------------------------------------------------------------------------|
E|--------------------------------------------------------------------------------------------------|

    S     S     e           S     S     S     S     E          S   +S       +E           E
e|--------------------------------------------------------------------------------------------------|
B|--------------------------------------------------------------------------------------------------|
G|--------------------------------------------------------------------------------------------------|
D|--------------------------------------------------------------------------------------------------|
A|--------------------------------------------------------------------------------------------------|
E|--0h====3-----3-----------------0h====3-----3----------------7---(7)b8r===(7)----------5----------|

    W
e|--------------------------------------------------------------------------------------------------|
B|--------------------------------------------------------------------------------------------------|
G|--------------------------------------------------------------------------------------------------|
D|--3-----------------------------------------------------------------------------------------------|
A|--3-----------------------------------------------------------------------------------------------|
E|--3-----------------------------------------------------------------------------------------------|

   Bb5
    T T  T T  T T  T T  T T  T T  T T  T T   T  T  T T  T T  T T  T T  T T  T T  T T
e|----3---------4---------6---------8-----------6---------6---------3---------3-------|
B|-13-------------13-------------13---------------13-------------13--------13---------|
G|------12-------------12-------------12---------------12-------------12--------12----|
D|---------3---------5---------6---------8-----------6---------5---------3---------3--|
A|-----------11-------------11--------------11--------------11------------------------|
E|------------------------------------------------------------------------------------|

    S    S    e         S    S    S    S     E          S    S    S    S    e
e|------------------------------------------------------------------------------------|
B|------------------------------------------------------------------------------------|
G|------------------------------------------------------------------------------------|
D|------------------------------------------------------------------------------------|
A|------------------------------------------------------------------------------------|
E|--0h===8----8--------------0h===8----8----------------0h===8----0h===8----8---------|

    Q.                            S    S    +H
e|------------------------------------------------------------------------------------|
B|------------------------------------------------------------------------------------|
G|------------------------------------10---(10)---------------------------------------|
D|------------------------------------10---(10)---------------------------------------|
A|--8-----------------------------8----8----(8)---------------------------------------|
E|--8-----------------------------8----8----(8)---------------------------------------|

   A5
    T T  T T  T T  T T  T T  T T  T  T  T  T  T  T  T T  T T  T T  T T  T T  T T  T T
e|----4---------6---------8---------10-----------8---------6---------4---------4-------|
B|-15-------------15-------------15----------------15-------------15--------15---------|
G|------15-------------15--------------15---------------15-------------15--------15----|
D|---------5---------6---------8----------10----------8---------6---------5---------5--|
A|-----------15-------------15---------------15--------------15------------------------|
E|-------------------------------------------------------------------------------------|

    S    S    e         S    S    S     S     E          S    S    S    S    e
e|-------------------------------------------------------------------------------------|
B|-------------------------------------------------------------------------------------|
G|-------------------------------------------------------------------------------------|
D|-------------------------------------------------------------------------------------|
A|-------------------------------------------------------------------------------------|
E|--0h===7----7--------------0h===7-----7----------------0h===7----0h===7----7---------|

    Q.                            S     S    +H
e|-------------------------------------------------------------------------------------|
B|-------------------------------------------------------------------------------------|
G|-------------------------------------------------------------------------------------|
D|--------------------------------7-----7----(7)---------------------------------------|
A|--7-----------------------------7-----7----(7)---------------------------------------|
E|--7-----------------------------7-----7----(7)---------------------------------------|

   Bb5
    T T  T T  T T  T T  T  T  T  T  T  T  T  T  T   T  T  T  T  T  T  T  T  T  T  T  T  T  T  T
e|----6---------8---------10----------11-----------13----------13----------13----------13--------|
B|-16-------------16---------------16-----------------16----------------16----------16-----------|
G|------15-------------15----------------15-----------------15----------------15----------15-----|
D|---------6---------8----------10----------12-----------13----------13----------13----------13--|
A|-----------15--------------15----------------15-----------------15-----------------------------|
E|-----------------------------------------------------------------------------------------------|

    S    S    e         S     S     S     S     E            S     S     S     S     e
e|-----------------------------------------------------------------------------------------------|
B|-----------------------------------------------------------------------------------------------|
G|-----------------------------------------------------------------------------------------------|
D|-----------------------------------------------------------------------------------------------|
A|-----------------------------------------------------------------------------------------------|
E|--0h===8----8---------------0h====8-----8------------------0h====8-----0h====8-----8-----------|

    Q.                              S     S    +H
e|-----------------------------------------------------------------------------------------------|
B|-----------------------------------------------------------------------------------------------|
G|-----------------------------------------------------------------------------------------------|
D|----------------------------------8-----8----(8)-----------------------------------------------|
A|--8-------------------------------8-----8----(8)-----------------------------------------------|
E|--8-------------------------------8-----8----(8)-----------------------------------------------|

[D.S. al Coda]
   A5                                     Eb5
    T   T  T  T  T  T  T  T  T    T  T  T  E  +H
e|-----15----------15------------16----------------------|
B|-18-----------18----------20---------------------------|
G|--------17----------17------------18-------------------|
D|-----------15----------15------------15----------------|
A|----------------------------------------18-(18)--------|
E|-------------------------------------------------------|

    E.                 S    +E             E  +H
e|-------------------------------------------------------|
B|-------------------------------------------------------|
G|-------------------------------------------------------|
D|-------------------------------------------------------|
A|-------------------------------------------------------|
E|--7------------------7----(7)\-----------1--(1)--------|

    E.                 S    +E             E  +Q     Q
e|-------------------------------------------------------|
B|-------------------------------------------------------|
G|-------------------------------------------------------|
D|-----------------------------------------1--(1)--------|
A|--7------------------7----(7)\-----------1--(1)--------|
E|--7------------------7----(7)\-----------1--(1)--/12\--|

   &
   D5     Eb    D5Eb       D5EbD5Eb    D5    Eb    D5Eb       D5EbD5Eb
(Gtr 5)
    H                  H                H                 H
e|-24b25--------------23-------------|-24b25-------------23-------------|
B|-21p================20-------------|-21p===============20-------------|
G|-----------------------------------|----------------------------------|
D|-----------------------------------|----------------------------------|
A|-----------------------------------|----------------------------------|
E|-----------------------------------|----------------------------------|

(Gtr 6)
    \0.5/
    H                  H                H                 H
e|-20p================18-------------|-21p===============20-------------|
B|-18p================16-------------|-18p===============16-------------|
G|-----------------------------------|-18p===============17-------------|
D|-----------------------------------|----------------------------------|
A|-----------------------------------|----------------------------------|
E|-----------------------------------|----------------------------------|

(Gtrs 2, 3)
    S     S E S S S S  S S S S S S E    S    S E S S S S  S S S S S S E
e|-----------------------------------|----------------------------------|
B|-----------------------------------|----------------------------------|
G|-----------------------------------|----------------------------------|
D|-----------------------------------|----------------------------------|
A|--0h====1-x-x-0h1-x----x-0h1-0h1-x-|--0h===1-x-x-0h1-x----x-0h1-0h1-x-|
E|--0h====1-x-x-0h1-x----x-0h1-0h1-x-|--0h===1-x-x-0h1-x----x-0h1-0h1-x-|

   D5    Eb    D5Eb       D5EbD5Eb     D5 Eb   D5 Eb       D5 Eb     D5Eb  D5    Eb
    H                 H                 H.                                  E.        +S
e|-24b25-------------23--------------|-21----------------------------------23b25r====(23)----|
B|-18p===============16p==========13-|-18h==20-21-(21)-/25s23---(23)-------23b25r====(23)----|
G|-15p===============13p==========12-|-15h==17-18-(18)-/22s20---(20)-------16b18r====(16)----|
D|-----------------------------------|-------------------------------------------------------|
A|-----------------------------------|-------------------------------------------------------|
E|-----------------------------------|-------------------------------------------------------|
   H                 Q.           E    E    S  S  +S    S  E    +Q         E.        +S

    H                 H                 H.                                  E.        +S
e|-21p===============20--------------|-18----------------------------------18b20r====(18)----|
B|-23p===============21p==========20-|-14h==16-18-(18)-/21s20---(20)-------20b21r====(20)----|
G|-18p===============17p==========15-|-10h==12-13-(13)-/17s15---(15)-------15b17r====(15)----|
D|-----------------------------------|-------------------------------------------------------|
A|-----------------------------------|-------------------------------------------------------|
E|-----------------------------------|-------------------------------------------------------|
   H                 Q.           E    E    S  S  +S    S  E    +Q         E.        +S

    S    S E S S S S  S S S S S S  E    S S  S  S   S    S  S S   S  S S S  S    S E
e|-----------------------------------|-------------------------------------------------------|
B|-----------------------------------|-------------------------------------------------------|
G|-----------------------------------|-------------------------------------------------------|
D|-----------------------------------|-------------------------------------------------------|
A|--0h===1-x-x-0h1-x----x-0h1-0h1--x-|--0h1--x--0h==1----x--0h1---x--0h1-x--0h===1-x---------|
E|--0h===1-x-x-0h1-x----x-0h1-0h1--x-|--0h1--x--0h==1----x--0h1---x--0h1-x--0h===1-x---------|

   D5 E5    D5E5        D5E5D5E5    D5  E5    D5E5
    W                                +W
e|-17-----------------------------|-(17)------------------------------------|
B|-15-----------------------------|-(15)------------------------------------|
G|-14-----------------------------|-(14)------------------------------------|
D|--------------------------------|-----------------------------------------|
A|--------------------------------|-----------------------------------------|
E|--------------------------------|-----------------------------------------|

    W                                +W
e|-22-----------------------------|-(22)------------------------------------|
B|-22-----------------------------|-(22)------------------------------------|
G|-21-----------------------------|-(21)------------------------------------|
D|--------------------------------|-----------------------------------------|
A|--------------------------------|-----------------------------------------|
E|--------------------------------|-----------------------------------------|

                       PM|                                  ~~~~
                                                               |----6----|
    S S e S S S S S  S  S S S S E     S S e S S S S S  S    +E  S S S S S S
e|--------------------------------|-----------------------------------------|
B|--------------------------------|-----------------------------------------|
G|--------------------------------|-------------------[4]b6r(4)p2-----------|
D|------------------<5>-----------|-------------------------------4p2-------|
A|--0h2-2-x-0h2-2-------0-2-0h2-x-|---0h2-2-x-0h2-2-------------------5p2p0-|
E|--0h2-2-x-0h2-2-------0-2-0h2-x-|---0h2-2-x-0h2-2-------------------------|

   D5  E5    D5E5        D5E5D5E5    D5  E5    D5E5
    +W                                +H              +H
e|-(17)----------------------------|-(17)------------(17)\-----------------|
B|-(15)----------------------------|-(15)------------(15)\-----------------|
G|-(14)----------------------------|-(14)------------(14)\-----------------|
D|---------------------------------|---------------------------------------|
A|---------------------------------|---------------------------------------|
E|---------------------------------|---------------------------------------|

    +W                                +H              +H
e|-(22)----------------------------|-(22)------------(22)\-----------------|
B|-(22)----------------------------|-(22)------------(22)\-----------------|
G|-(21)----------------------------|-(21)------------(21)\-----------------|
D|---------------------------------|---------------------------------------|
A|---------------------------------|---------------------------------------|
E|---------------------------------|---------------------------------------|

                                                              /1.5____|
                         PM|
     S S e S S S S S  S  S S S S E     S S e S S S S   S   S  E      +E  E
e|---------------------------------|---------------------------------------|
B|---------------------------------|-------------------------10-----(10)---|
G|---------------------------------|-----------------------0--9------(9)-0-|
D|-------------------<5>-----------|-----------------------0-------------0-|
A|---0h2-2-x-0h2-2-------0-2-0h2-x-|---0h2-2-x-0h2-2-----------------------|
E|---0h2-2-x-0h2-2-------0-2-0h2-x-|---0h2-2-x-0h2-2-----------------------|


[Outro]
   D5E5    D5E5        D5E5D5E5
(Gtrs 2, 3)
                       PM|
   S S e S S S S S  S  S S S S E
e|-------------------------------|
B|-------------------------------|
G|-------------------------------|
D|-----------------<5>-----------|
A|-0h2-2-x-0h2-2-------0-2-0h2-x-|
E|-0h2-2-x-0h2-2-------0-2-0h2-x-|

  D5E5
                           |--------7--------|
  S S e S E  S S  E  T  T  S  S  S  S  S  S  S
e|----------------15p12--------------------------|
B|----------------15p12-15h17p15p12--------------|
G|----------------------14h16p14p12-14p12--------|
D|---------2\-----------------------14p12-14p12--|
A|-0h2-2---2\-2---------------------------14p12--|
E|-0h2-2------2----------------------------------|

   D5E5    D5E5    N.C.            D5E5    D5E5
   (Gtr 2)
                                                          \4.5
   S S e S S S S S S S S S S S S   S S e S S S S S   E.  +Q
e|-------------------------------|----------------------------------|
B|-----------------3-3-3-3-3-3-3-|----------------------------------|
G|-------------------------------|-----------------/16--(16)--------|
D|-------------------------------|----------------------------------|
A|-0h2-2-x-0h2-2-----------------|-0h2-2-x-0h2-2--------------------|
E|-0h2-2-x-0h2-2-----------------|-0h2-2-x-0h2-2--------------------|

(Gtr 3)
                                                        \1.5
   S S e S S S S S S S S S S S S   S S e S S S S Q        Q
e|-------------------------------|----------------------------------|
B|-------------------0---0---0---|----------------------/17---------|
G|-----------------0---0---0---0-|----------------------------------|
D|-------------------------------|----------------------------------|
A|-0h2-2-x-0h2-2-----------------|-0h2-2-x-0h2-2--------------------|
E|-0h2-2-x-0h2-2-----------------|-0h2-2-x-0h2-2--------------------|

(Gtr 1)
                                                                 \1
   W                               H             Q        E      E
e|-------------------------------|----------------------------------|
B|-------------------------------|-----------------------------/18--|
G|-------------------------------|----------------------------------|
D|-------------------------------|----------------------------------|
A|-------------------------------|----------------------------------|
E|-------------------------------|----------------------------------|

   D5E5    D5E5                        D5E5    D5E5
(Gtrs 2, 3)
                                                         \7___|
                       PM
   S S e S S S S S  S  Q     +S   S    S S e S S S S S S E   +Q
e|-----------------------------------|----------------------------|
B|-----------------------------------|----------------------------|
G|-----------------------------------|-----------------0----------|
D|-----------------<5>------------x/-|----------------------------|
A|-0h2-2-x-0h2-2-------2b6===(2)r-x/-|-0h2-2-x-0h2-2-----2---(x)--|
E|-0h2-2-x-0h2-2-------2b6===(2)r----|-0h2-2-x-0h2-2-x---2---(x)--|

   D5E5    D5E5            N.C.                D5E5    D5E5
   (Gtr 2)
                                                                  /1.5____|
   S S e S S S S E.         S   E.         S   S S e S S S S S S  E      +E  E
e|-----------------------------10------------|----------------------------------|
B|-------------------------12--12---------10-|-------------------10-----(10)----|
G|-------------------------11--14----------9-|-----------------0--9------(9)-0--|
D|-------------------------14-------------12-|-----------------0-------------0--|
A|-0h2-2-x-0h2-2-----------------------------|-0h2-2-x-0h2-2--------------------|
E|-0h2-2-x-0h2-2-----------------------------|-0h2-2-x-0h2-2--------------------|

(Gtr 3)
                                                                  /1.5____|
   S S e S S S S E       E     +S   E.         S S e S S S S S S  E      +E  E
e|---------------------------------12--------|----------------------------------|
B|----------------------10----(10)-15--------|-------------------10-----(10)----|
G|-----------------------9-----(9)-16--------|-----------------0--9------(9)-0--|
D|----------------------12----(12)-----------|-----------------0-------------0--|
A|-0h2-2-x-0h2-2-----------------------------|-0h2-2-x-0h2-2--------------------|
E|-0h2-2-x-0h2-2-----------------------------|-0h2-2-x-0h2-2--------------------|

(Gtr 1)
   H             S   E.        +E       E      W
e|-------------------------------------------|----------------------------------|
B|-------------------------------------10----|----------------------------------|
G|-------------------9---------(9)------9----|----------------------------------|
D|-------------------7---------(7)-----12----|----------------------------------|
A|------------------10--------(10)-----------|----------------------------------|
E|-------------------------------------------|----------------------------------|

   D5E5    D5E5  N.C.
(Gtrs 2, 3)  (Gtr 1)
                   \1____/
   S S e S S S S   a    +Q.    +E
e|---------------------------------|
B|---------------h15---(15)---(15)-|
G|---------------------------------|
D|---------------------------------|
A|-0h2-2-x-0h2-2-------------------|
E|-0h2-2-x-0h2-2-------------------|

     \1/     \1/   \1/     \1/     \1/     \1/   \1/     \1/     \1/
    +S   S  +S    +S   S  +S   S  +S   S  +S    +S   S  +S   S  +S  S
e|--------------------------------------------------------------------|
B|-(15)s13-(13)--(13)s15-(15)s17-(17)s13-(13)--(13)s15-(15)s10-(10)s8-|
G|--------------------------------------------------------------------|
D|--------------------------------------------------------------------|
A|--------------------------------------------------------------------|
E|--------------------------------------------------------------------|

    \1/  \1/  \1/  \1/     \1/     \1/     \1/   \1/       \1/   \1/   \1/
   +S   +S   +S   +S   S  +S   S  +S   S  +S    +S  S  S  +S    +S    +S
e|------------------------------------------------------------------------|
B|-(8)--(8)--(8)--(8)s10-(10)s13-(13)s10-(10)--(10)s8s10-(10)--(10)--(10)s|
G|------------------------------------------------------------------------|
D|------------------------------------------------------------------------|
A|------------------------------------------------------------------------|
E|------------------------------------------------------------------------|

        \1/   \1/     \1/   \1/     \1/     \1/     \1/     \1/   \1/
    S  +S    +S   S  +S    +S   S  +S   S  +S   S  +S   S  +S    +S   S
e|----------------------------------------------------------------------|
B|-15-(15)--(15)s13-(13)--(13)s15-(15)s17-(17)s13-(13)s15-(15)--(15)s10-|
G|----------------------------------------------------------------------|
D|----------------------------------------------------------------------|
A|----------------------------------------------------------------------|
E|----------------------------------------------------------------------|

     \1/   \1/  \1/     \1/   \1/   \1/   \1/
    +S  S +S   +S   S  +S  S +S  S +S  S +S  Q
e|----------------------------------------------|
B|-(10)s8-(8)--(8)s10-(10)s8-(8)s6-(6)s5-(5)s3--|
G|----------------------------------------------|
D|----------------------------------------------|
A|----------------------------------------------|
E|----------------------------------------------|

     \1/   \1/   \1/   \1/     \1/     \1/     \1/     \1/   \1/     \1/
     S    +S    +S    +S   S  +S   S  +S   S  +S   S  +S    +S   S  +S   S
e|-------------------------------------------------------------------------|
B|-h15---(15)--(15)--(15)s13-(13)s15-(15)s17-(17)s13-(13)--(13)s15-(15)s13-|
G|-------------------------------------------------------------------------|
D|-------------------------------------------------------------------------|
A|-------------------------------------------------------------------------|
E|-------------------------------------------------------------------------|

     \1/     \1/   \1/   \1/     \1/     \1/   \1/   \1/   \1/     \1/
    +S   S  +S    +S  S +S   S  +S   S  +S    +S    +S    +S   S  +S   S
e|-----------------------------------------------------------------------|
B|-(13)s10-(10)--(10)s8-(8)s10-(10)s13-(13)--(13)--(13)--(13)s10-(10)s13-|
G|-----------------------------------------------------------------------|
D|-----------------------------------------------------------------------|
A|-----------------------------------------------------------------------|
E|-----------------------------------------------------------------------|

     \1/     \1/   \1/   \1/
    +S   S  +S    +S    +S   S E H
e|------------------------------------*|
B|-(13)s15-(15)--(15)--(15)s13--------*|
G|------------------------------------*|
D|------------------------------------*|
A|------------------------------------*|
E|------------------------------------*|




************************************

| x    Dead note
| ~    Vibrato
| (n)  Ghost note
| s    Slap
| pb   Pre-bend
| h    Hammer-on
| p    Pull-off
| /    Slide up
| \    Slide down
| b    Bend
| >    Accented note
| PM   Palm mute
| *    Natural harmonic
| =   - hold bend; also acts as connecting device for hammers/pulls


************************************
Suggest correction
Creating personal tab
Creating personal tab
You can edit any tab online and save it as your Personal.

You can edit, replace or remove any tab part or add personal notes – all changes will be seen only by you.

Personal tabs can be accessed anytime from any device, even offline.
Learn more »
comments
print report bad tab
7 comments total. Showing first comments.
+2 reply
TheShred201 316 Jul 06, 2007 04:08 PM

Great tab, but I hope to clear up the tapping bit a little for people. To get the idea, we will analyze the opening lick. His left hand is reaching down from the top of the neck, and hitting both the 1st string (high e) and the 4th string (D) at the tenth fret. Then he uses three fingers from his picking hand for the other notes, so his pointer does the 12th fret on the 5th string (A) his middle finger does the twelfth fret on the 3rd string (G), and his ring finger does the thirteenth fret note on the 2nd string (B). Great tab John!

+1 reply
TheShred201 316 Jul 06, 2007 04:09 PM

I don't feel that I made it clear that the left hand is over the neck, as opposed to under it like it normally is. Sorry!

+1 reply
MedicreDemon 50 Nov 17, 2007 06:29 PM

Jesus christ this is gonna take hours to get the intro down, days even! Nice tab on the other hand though!

guest
Wanna post a correction for this tab? Suggest correction