Oops, an error
Loading. Please wait.

Crossroads Duel Tab

79,469 views 81 this week
13 commentsread comments
1 2 3 4 5
x 14
add to favorites
launch autoscroll
font size
0
reset
how to read this tab
guitar tuner
Autoscroll
slow
fast
+/-
esc
set tempo
stop
Help us to improve Ultimate-Guitar.com Take our survey!
×
Author
Difficulty
Tabbers playing skills
advanced
advanced
This is all the duel...it's long I know but I feel UG needs a written version
(eg. not powertab or guitar pro) so this is just a cut and paste...not my work.

Sorry about the messed up bits...I know they are there.

Gtr I (E A D G B E) - 'Jack Butler - Steve Vai (standard tuning)'
Gtr II (D A D G B E) - 'Jack Butler - Steve Vai (drop D tuning)'
Gtr III (D A D F# A D) - 'Eugene (Ralph Macchio) - Ry Cooder (open D Tuning w/slide)'
Gtr IV (E A D G B E) - 'Eugene (Ralph Macchio) - Steve Vai (Standard tuning)'

Butler's Bag
  Q=200                                    Q
 4/4
  Gtr I
           PM--------|
  H    S S S S S S S S   S E. H       E  E
|----------------------|-------------------|
|----------------------|-------------------|
|------2p0-------------|-------------------|
|----------2-5-2-0-----|-------------------|
|------------------2-2-|-------------------|
|----------------------|-5-3--3b4=====3r-x-|


  .=150
  12/8
                         ~~~~~~~~~~~~~~~
    Q       +H          +H.         +Q    +Q     Q   H.
e|-------------------------------|-------------------0-----|
B|-15b16===(15)b17=====(15)------|-(15)--(15)r-----17------|
G|-14b15===(14)b16=====(14)------|-(14)--(14)r-----16------|
D|-------------------------------|-------------------------|
A|-------------------------------|-------------------------|
E|-------------------------------|-------------------------|


                             ~~~~~~~~~~~~~~~~~~~~
    a       H.       +Q.    +Q.      +Q.    +Q     a      +E   +Q.    E   E E
e|----------0--------(0)----(0)---|--(0)--------------------------------------|
B|---------17-------(17)---(17)---|-(17)--------------------------------------|
G|-16b17==(16)------(16)---(16)---|-(16)---(16)r--16b17==(16)-(16)r-----------|
D|--------------------------------|-------------------------------------/19---|
A|--------------------------------|-------------------------------------------|
E|--------------------------------|-------------------------------------------|


    a     +E    E  a     +E    E  a     +E    E  a     +E    E  a     +E    E  a     +E    E
e|-------------17-------------17-------------17-------------17-------------17-------------17-|
B|-20b22=(20)r----20b22=(20)r----20b22=(20)r----20b22=(20)r----20b22=(20)r----20b22=(20)r----|
G|-------------------------------------------------------------------------------------------|
D|-------------------------------------------------------------------------------------------|
A|-------------------------------------------------------------------------------------------|
E|-------------------------------------------------------------------------------------------|


    a      +E    E  a      +E    E  a      +E    E  E  S  S  E  S  S E  E
e|--------------17--------------17--------------17-21-21p19-17-21p17p0-16-|
B|-20b22==(20)r----20b22==(20)r----20b22==(20)r---------------------------|
G|------------------------------------------------------------------------|
D|------------------------------------------------------------------------|
A|------------------------------------------------------------------------|
E|------------------------------------------------------------------------|


    E  E  a      +E    E  E  E  E  E  E  E  E  E
e|-16----18b20==(18)r----------------------------|
B|----19--------------19-17s15----17s15-14-12----|
G|-----------------------------16-------------14p|
D|-----------------------------------------------|
A|-----------------------------------------------|
E|-----------------------------------------------|


    E  E  E  E  E  E  E  E  E  Q   +E       Q     E  Q     E  Q     E  Q     E
e|--------------------------------------|---------------------------------------|
B|--------------------------------------|---------------------------------------|
G|-13----14p13--------------------------|-------h16------h14------h18------h13--|
D|----14-------16p14-12p11--------------|---------------------------------------|
A|-------------------------12s14--(14)-|-/14p------12p------16p------11p-------|
E|--------------------------------------|---------------------------------------|


    Q     E Q     E  Q.   Q.     Q    E   Q   E  Q   E  Q   E
e|-----------------------------|----[17]p14-------------------|
B|-----------------------------|------------------------------|
G|------h14-----h11-13----7----|-------------16-16p=14-14--14p|
D|-----------------------------|------------------------------|
A|-12p------9p------11----5----|------------------------------|
E|-----------------------------|------------------------------|


                       ~~~~~~~~~~
    Q   E   Q     E   +Q.    +Q   E
e|----------------------------------||
B|----------------------------------||
G|-13-------------------------------||
D|-----16-[14]--[12]h(12)---(12)----||
A|----------------------------------||
E|----------------------------------||


                      1.5
   Q    E  Q   E  Q   E    Q    E
e|--------------------------------|
B|--------15-----14--15-----------|
G|----/16-16--15-15--16-------/16-|
D|--------------------------------|
A|--------------------------------|
E|--------------------------------|


                     /1
    Q.    Q   E  E  +S    +S   E  Q   E   Q    E  Q   E  Q   E Q    E
e|--------------------------------------|------------------------------|
B|-15----14--15-15-(15)--(15)-14-14--15-|--------15-----14h=15---------|
G|-16----15--16-16------------15-15--16-|----/16-16--15-----16----/16--|
D|--------------------------------------|------------------------------|
A|--------------------------------------|------------------------------|
E|--------------------------------------|------------------------------|


                         1.5
    Q   E  Q   E  Q.    +Q      E   Q    E    Q   E  Q   E Q   E
e|--------------------------------|------------------------------|
B|-15--15-14--15-15----(15)----15-|---------h20-----19--20-------|
G|-----16-15--16-16----(16)-------|----/18p------18-18--------18-|
D|--------------------------------|------------------------------|
A|--------------------------------|------------------------------|
E|--------------------------------|------------------------------|


                 1.5/         1.5
     Q    E  Q   E      +Q.    Q.
e|------------------------------------|
B|-h20------19--20-----(20)---20------|
G|-(18)--18---------------------------|
D|------------------------------------|
A|------------------------------------|
E|------------------------------------|


    Q   Q   a  Q   a      +Q     Q   Q     a  Q   E  Q   a  E  +H     Q
e|--------------------------------------|--------------------------------|
B|-17--15-------------------------------|--------------------------------|
G|---------12h14--12b13==(12)r----------|--------------------------------|
D|------------------------------14--12--|---------------12h14-(14)-------|
A|--------------------------------------|-14p12--10-10-------------------|
E|--------------------------------------|--------------------------------|


         1/      1.5/       .5/
    Q   +E   Q   +E      Q   +E      Q   E
e|-----------------------------------------|
B|-----------------------------------------|
G|-14--(14)p12--(12)h===14--(14)p===12h=14-|
D|-----------------------------------------|
A|-----------------------------------------|
E|-----------------------------------------|


    .5/                     .5/
    E      E  E  E  E  E  Q   E      +Q    E
e|-------------------------------------------|
B|-------------------------------------------|
G|-14p====12h14-14p12h14-14--12-----(12)----|
D|-------------------------------------------|
A|-------------------------------------------|
E|-------------------------------------------|


                                                   1
    Q  E  E E E Q  E Q  E   Q   E  Q   E  +H      +Q
e|-12--0-10-0-0-9--0-8--0-|-7--10-11--12-(12)----(12)--|
B|------------------------|----------------------------|
G|------------------------|----------------------------|
D|------------------------|----------------------------|
A|------------------------|----------------------------|
E|------------------------|----------------------------|


     E  E  E  E  E  E  E  E  E  E  E  S  S
e|-/19-16----------------------------------|
B|--------17-15-14-------------------------|
G|-----------------16-13-12----------------|
D|--------------------------14-12p11-------|
A|-----------------------------------14p11s|
E|-----------------------------------------|


                                     1.5
                                                     ~~~~~~~~~~~
   Q  Q  Q   Q   E  E  E  E    Q.    Q.      a      +Q.    +Q    E
e|--------------------14-17s|=22----22------22b24==(22)---(22)r--0-||
B|-----------------15-------|--------------------------------------||
G|--------------13----------|--------------------------------------||
D|-------9S=14--------------|--------------------------------------||
A|-7------------------------|--------------------------------------||
E|--------------------------|--------------------------------------||


 Headcuttin Duel
  Freely Q=146
 4/4
  Gtr II
        1.5/              7
  H    +H          +H     +H       E E E E E E E E   E E E E E E E E
e|----------------|---------------|-----------------|-----------------|
B|----------------|---------------|-----------------|-----------------|
G|-7----(7)-------|-(7)----(7)----|-----------------|-----------------|
D|-7----(7)-------|-(7)----(7)----|-----------------|-----------------|
A|----------------|---------------|-0-0-x-0-0-0-x-x-|-0-0---x-0-0-x-x-|
E|----------------|---------------|-0-0-x-x-0-0-x-x-|-0-0---x-0-0-x-x-|


                        1.5/      /1.5    7
   E E E E E E  Q      +H         +Q       +Q
e|------------------|----------------------------|
B|------------------|----------------------------|
G|-------------<5>--|-(<5>)------(<5>)----(<5>)--|
D|-------------<5>--|-(<5>)------(<5>)----(<5>)--|
A|-0-0---0-0-0------|----------------------------|
E|-0-0---0-0-0------|----------------------------|


   E E E E E E E E   E E E E E E  Q
e|-----------------|-------------------|
B|-----------------|-------------------|
G|---------------x-|-------0-----<3>---|
D|---------------x-|-------0-----<3>---|
A|-0-0---0-0-0-----|-0-0-----0-0-------|
E|-0-0---0-0-0-----|-0-------0-0-------|


     1.5/
    +H         E  E  E  S  S     W            Q  Q  H      Wx4
e|------------22----22-------|--20---------|-------------|--------||
B|---------------22----22s20-|-(20)--------|-------------|--------||
G|-(<3>)---------------------|-------------|-------------|--------||
D|-(<3>)---------------------|-------------|-^0----------|--------||
A|---------------------------|-------------|-^0----------|--------||
E|---------------------------|-------------|-^0----------|--------||


   Gtr III
                ~~~~~~~~~~~~
    a  Q.    E  H       +H      +Q.    E
e|-10S12----10s12----|-(12)----(12)-----|
B|-10S12----10s12----|-(12)----(12)-----|
G|-------------------|-------------------|
D|-------------------|-------------------|
A|-------------------|-------------------|
E|-------------------|-------------------|


                                 ~~~~~~~~
                        |--3--|
   a  Q   H.        Q   E  E  E  Q    Q
|-11s12s=10-------|-----------------------|
|-11s12s=10-------|----12s11--------------|
|-----------------|----------12-----------|
|-----------------|-------------12--(12)--|
|-----------------|------------------12---|
|-----------------|-----------------------|


     ~~~~
    +Q    Q   +Q.    E   Q  E E E E E E   Q  E E Q  Q    E E E E E E E. S
e|---------------------|------------x---|--------0-----|-------------------|
B|-------------------0-|------------0---|--------0--0--|-5p0-0-------------|
G|-------12--(12)---0-|----------------|--------------|---0---------------|
D|-(12)--------------0-|----------------|-5--3p0-------|-------------5-----|
A|-(12)----------------|--------x-x-----|--------------|-------------------|
E|---------------------|-0--x-----------|--------0--0--|-----0-0-0-0-------|


                                     ~
   Q  E E a E E  Q     Q  Q  Q  Q    H    E E Q    Q  E E E E E E
e|------0------------|-------------|----------0--|----------------|
B|---------------0---|-------------|----------0--|--------0-----0-|
G|-------------------|-------------|-------------|--------0-------|
D|-5--3-0------------|----------4--|-5----4p0----|--------0-------|
A|-------------------|-------7-----|-5-----------|--------0-------|
E|--------3s4p0-(0)--|-7--7--7-----|-5--------0--|-x--x-x---2s4---|


   ~
   H    E E Q    Q   E  E Q  E E   W          E E  H.         +H      E E Q
e|----------0--|-7--(7)---0------|----------|--------------|----------------|
B|----------0--|----------0------|----------|--------------|----------0-----|
G|-------------|-----------------|----------|--------------|----------0-----|
D|-5----4p3----|-----5-----------|-5--------|-3-0-12-------|-(12)----0------|
A|-5-----------|-----5-----------|-5--------|-----12-------|-(12)-----------|
E|-5--------0--|-------------3-4-|-5--------|--------------|----------------|


  Freely Throughout
   Gtr II                      Gtr III                     Gt
                                         ~~~~~~~~
    a      +H      +E    E E E     E  E  Q    E   +E   E E
e|-----------------------------||------------12--(12)-----||
B|-----------------------------||-11s10s12--(12)-(12)-0---||
G|-12b14==(12)----(12)r-------||--------------------------||
D|-------------------------x---||--------------------------||
A|-----------------------------||--------------------------||
E|-----------------------------||--------------------------||


  r II                               Gtr III
                        ~~~~                      ~~
   a a  a      +H      +Q    +E    E     a  E  E  Q   +E   E  E E
e|-----------------------------------||-10-12S11S12--(12)-12-0----||
B|-----13b15==(13)----(13)--(13)r---||-----------------------0----||
G|---x-------------------------------||----------------------------||
D|-x---------------------------------||-----0----------------------||
A|-----------------------------------||-----0----------------------||
E|-----------------------------------||----------------------------||


   Gtr II                                               Gt
    a       E   +S   S  E  S  S   Q        +E   +S    S
e|------------------------------------------------------||
B|---------13-------------------[15]b18===(15)-(15)r---||
G|-12b14==(12)r(12)-10----12h14-------------------------||
D|---------------------12-------------------------------||
A|------------------------------------------------------||
E|------------------------------------------------------||


  r III                                  Gtr II
                                ~~~~
    a  E  E  a  E  Q   S   S    E   +E      E E  a      +E   +S   S  E  E      +E   +E
e|----------------12---------------------||---0--------------------------------------------||
B|-12S11----11S12-----12-(12)-(12)-(12)-||---x-20b22==(20)r(20)p18------------------------||
G|-------12---------------12--(12)-(12)-||-------------------------19-19b22==(19)-(19)r--||
D|-----------------------------12--(12)-||------------------------------------------------||
A|---------------------------------------||------------------------------------------------||
E|---------------------------------------||------------------------------------------------||


   Gtr III                              Gtr II                                 Gt
                                                                    ~~
    a  S  S  a  Q   a  E  a  Q   +E   E     a       E   +S   S  Q   Q   +E   E
e|-----------------11S12-12S14--(14)---||---------20--------------20--(20)-||
B|-12S11----11S12-----------------------||-20b22==(20)r(20)p18-------------||
G|-------12-----------------------------||---------------------19----------||
D|------------------------------------0-||---------------------------------||
A|------------------------------------0-||---------------------------------||
E|--------------------------------------||---------------------------------||


  r III                        Gtr II
                ~~      ~~
    a  E  E  a  Q   Q   E  +E      Q       +Q        +Q    +S   +S   E
e|-------12-12S15--19--24-(24)-||-22b24===(22)b25===(22)--(22)-(22)r----||
B|-10S12----12S15--------------||---------------------------------------||
G|-----------------------------||---------------------------------------||
D|-----------------------------||------------------------------------0--||
A|-----------------------------||------------------------------------0--||
E|----------------------0------||---------------------------------------||


  Gtr III            Gtr II
                           |--3--|
   a  Q   H     E  E    E  S  S  S  a      +Q     E    E  S  S  S   S
|-22s24h=27----24---||---------17-20b22==(20)--(20)r-19-20p17----/17-|
|--------------------||------18--------------------------------20-----|
|--------------------||---19------------------------------------------|
|------------------0-||--------------------------(0)------------------|
|---------0--------0-||-----------------------------------------------|
|---------0----------||-----------------------------------------------|


    a      +E   +S   S  S  E  S  S      +S   +S   S  S S  S  S
e|---------------------------------------------------------------|
B|-20b22==(20)r(20)-18-20-18-10------------------------9s10------|
G|------------------------------12b14==(12)r(12)p10-12------12---|
D|---------------------------------------------------------------|
A|---------------------------------------------------------------|
E|---------------------------------------------------------------|


 2/4                       4/4
                         Gtr III
                               |--3--|
   S  S  S  S  +E   +E      E  S  S  S  a  Q   E  E  S  S  S  S
|------------------------||---------19-22S24--22-19-22-19----19-|
|------------------------||------20-----------------------22----|
|-10-12-10---------------||---20--------------------------------|
|----------12-(12)-(12)-||-------------------------------------|
|------------------------||-------------------------------------|
|------------------------||-------------------------------------|


    E  S  S  S  E  S  S  S  S  S  S  S  S  S
e|-19s17----17-------------------------------|
B|-------19----20S12p10-12-10----10-11S12-10-|
G|----------------------------11-------------|
D|-------------------------------------------|
A|-------------------------------------------|
E|-------------------------------------------|


                ~~
    S  S  S  S  H     +E   E   Wx3
e|----------12-12----(12)---|--------||
B|----10----12-12----(12)-0-|--------||
G|-11----11----------------0-|--------||
D|--0-------12-12----(12)-0-|--------||
A|---------------------------|--------||
E|---------------------------|--------||


   Gtr I
   Q.    E  S  S  S  S  S  S  S  S    S  S  S  S  S  S  S  S  S  S  S  S  S  S  S  S
e|------15-13h15p13----13----------|----------------------------------------|
B|------------------15----15-13-12-|-13-12-15-12-13-12-13-12----------------|
G|---------------------------------|-------------------------14-12--------12|
D|---------------------------------|-------------------------------15-14-15----15-14-|
A|---------------------------------|----------------------------------------|
E|---------------------------------|----------------------------------------|


    S  S  S  S  S  S  S  S  S  S  S  S  S  S  S  S
e|-------------------------------------------------|
B|-------------------------------------------------|
G|-------------------------------------------------|
D|-15p14-12-14-15-14-12----------------12-14-15-14-|
A|----------------------15-14-12-14-15-------------|
E|-------------------------------------------------|


                                                                  Q.
                                                      2.5
    S  S  S  S  S  S  S  S  S  S  S  S  S  S  S  S    W
e|-------------------------------------------------|--------------||
B|-------------------------------------------------|--------------||
G|-------------------------------------------------|--------------||
D|-12----------------------------------------------|--------------||
A|----15-14-12-------------------------------------|--------------||
E|-------------15-13-12-13-15-13-12-13-12-10-12s10-|-[8]----------||


  =146
  12/8
    W.                   +Q.    +Q    +E   +Q    E  Q   E
e|--------------------|----------------------------------------|
B|-13pb15=============|=(13)---(13)--(13)r(13)--12-13--12b13===|
G|--------------------|----------------------------------------|
D|--------------------|----------------------------------------|
A|--------------------|----------------------------------------|
E|--------------------|----------------------------------------|


               ~~~~
    +H.       +H.         +Q.    +Q     E     +Q    E  Q   E
e|---------------------|-------------------------------------|
B|-(12)------(12)------|-(12)---(12)r--12b14r(12)--10-12p=10-|
G|---------------------|-------------------------------------|
D|---------------------|-------------------------------------|
A|---------------------|-------------------------------------|
E|---------------------|-------------------------------------|


    Q.    Q.    Q.    Q   E
e|-15----14----15----12s=10-|
B|--------------------------|
G|--------------------------|
D|--------------------------|
A|--------------------------|
E|--------------------------|


    E  E  E  Q   a      +E   +Q    E  Q.
e|-13-10----10-----------------------------|
B|-------13-----13b15==(13)r(13)p=12-13---|
G|-----------------------------------------|
D|-----------------------------------------|
A|-----------------------------------------|
E|-----------------------------------------|


                                       1/          .5/
    a  E  E  E  Q   E E  E E  Q.      +Q     E  Q   E      +H.
e|---------------------------------|------------------------------|
B|---------------------------------|------------------------------|
G|-10s12p10----12--10-9h10p9-------|------------------------------|
D|----------12---------------12----|-(12)---10-12--10-----(10)----|
A|---------------------------------|------------------------------|
E|---------------------------------|------------------------------|


                                               7
    Q   E  Q.    Q   E  Q   E    Q.    Q   E  +Q.   Q.
e|----------------------------|--------------------------|
B|----------------------------|--------------------------|
G|-12--12p10----12--12p10--14-|-12----14--12-(12)--------|
D|----------------------------|--------------------------|
A|----------------------------|--------------------------|
E|----------------------------|--------------------------|


    a  H.       +Q    E Q   E
e|-15S17-------(17)--17----17---|
B|------------------------------|
G|------------------------------|
D|------------------------------|
A|------------------------------|
E|------------------------------|


    Q       +E   +Q    E  Q   a      +H        +W.
e|-20b22===(20)r(20)--19-20--19b20==(19)----|-(19)------------|
B|------------------------------------------|-----------------|
G|------------------------------------------|-----------------|
D|------------------------------------------|-----------------|
A|------------------------------------------|-----------------|
E|------------------------------------------|-----------------|


    +W.               +H.       +Q.    Q.
e|-(19)------------|-(19)------(19)r---------|
B|-----------------|-------------------------|
G|-----------------|-------------------------|
D|-----------------|-------------------------|
A|-----------------|-------------------------|
E|-----------------|-------------------------|


    Q.   Q.    Q.   Q.      Q.   Q.    Q.   Q.
e|-----------------------|-----------------------|
B|-----------------------|-----------------------|
G|-10--------------------|-----------------------|
D|------------12---------|-10--------------------|
A|-----------------------|------------12---------|
E|-----------------------|-----------------------|


                                   Gtr III
    Q.   Q.   Q.   Q.     W           H.      Q.   Q   E
e|----------------------|----------||-----------------------|
B|----------------------|----------||-----------------12----|
G|----------------------|----------||-----------------------|
D|----------------------|----------||-----------------------|
A|-10---------8---------|----------||-----------------------|
E|----------------------|----------||-----------------------|


    +W.               Q.    E  Q   a  Q.    Q   E
e|-----------------|------------------------------|
B|-(12)------------|-12----12-11------------------|
G|-----------------|--------------11s12-----------|
D|-----------------|-----------------------12--12-|
A|-----------------|------------------------------|
E|-----------------|------------------------------|


     ~~~~
    +H.       +Q.    a  Q   E   H.      Q.   Q   E
e|----------------------------|---------------------|
B|----------------------------|-----------------12--|
G|------------------11s12-----|---------------------|
D|-(12)------(12)----------12-|---------------------|
A|----------------------------|---------------------|
E|----------------------------|---------------------|


    +W.               Q.    E  Q   a  Q.    Q   E
e|-----------------|------------------------------|
B|-(12)------------|-12----12-11------------------|
G|-----------------|--------------11s12-----------|
D|-----------------|-----------------------12--12-|
A|-----------------|------------------------------|
E|-----------------|------------------------------|


     ~~~~
    +H.       +Q.    a  Q   E   H.      Q.   Q   E
e|----------------------------|---------------------|
B|----------------------------|-----------------12--|
G|------------------11s12-----|---------------------|
D|-(12)------(12)----------12-|---------------------|
A|----------------------------|---------------------|
E|----------------------------|---------------------|


    +W.               Q.    E  Q   a  Q.    Q   E
e|-----------------|------------------------------|
B|-(12)------------|-12----12-11------------------|
G|-----------------|--------------11s12-----------|
D|-----------------|-----------------------12--12-|
A|-----------------|------------------------------|
E|-----------------|------------------------------|


     ~~~~
    +H.       +Q.   Q   E   W
e|---------------------12-|------|
B|---------------------12-|------|
G|------------------------|------|
D|-(12)------(12)---------|------|
A|------------------------|------|
E|------------------------|------|


   Gtr I
                                                                 ~~~~
    H.       +Q.    Q  E    a      +Q.     Q.    Q.    Q   E    +H.       +Q.      Q     E
e|-----------------------|-----------------------------------|--------------|
B|-19-------(19)---20----|-20b22==(20)r---20----19----17-----|--------------|
G|-----------------------|--------------------------------19-|-(19------(19)|
D|-----------------------|-----------------------------------|--------------|
A|-----------------------|-----------------------------------|--------------|
E|-----------------------|-----------------------------------|--------------|
|
 | Gtr III
 |  H.       +Q.    Q  E            Q.     Q.    Q.    Q   E    +H.       +Q    E  E  E  E
e|-----------------------|-----------------------------------|--------------|
B|-12-------(12)---14----|---------15p====14----12----11-----|------------11|
G|-----------------------|--------------------------------12-|-(12)-----(12)-----12-------|
D|-----------------------|-----------------------------------|--------------------------12-|
A|-----------------------|-----------------------------------|--------------|
E|-----------------------|-----------------------------------|--------------|


     E  Q    Q    E   Q.     Q.      H.    +Q.    Q   E    a      +Q.     Q.    Q.    Q   E
e|--------------------------------|---------------------|-------------------|
B|--------------------------------|-18----(18)---20-----|-20b22==(20)r---20----18----17--------|
G|--17-----------17--17----------|---------------------|--------------------------------19----|
D|--------------------------------|---------------------|-------------------|
A|--------------------------------|---------------------|-------------------|
E|--------------------------------|---------------------|-------------------|
|
 |  +Q.     +Q    E  +Q    H         H.    +Q.    Q.               Q.     Q.    Q.    Q   E
e|--------------------------------|---------------------|--------------------------------------|
B|--------------------------------|-12----(12)---14-----|---------15-----14----12----11--------|
G|--------------------------------|---------------------|--------------------------------12----|
D|-(12)----(12)--10-(10)---------|---------------------|--------------------------------------|
A|--------------------------------|---------------------|--------------------------------------|
E|--------------------------------|---------------------|--------------------------------------|


                      7      /1
    +H.        Q.     Q.      H.            H     Q     H.       +Q.    Q  E
e|-------------------------|-------------------------|-----------------------|
B|-------------------------|-------------------------|-18-------(18)---20----|
G|-(19)-------19----(19)---|-17------------17--------|-----------------------|
D|--------------------0----|--0----------------------|-----------------------|
A|-------------------------|-------------------------|-----------------------|
E|-------------------------|-------------------------|-----------------------|
|
 |  +H.       +Q.     Q.      E   Q  Q   E  H.          H.       +Q.    Q  E
e|-------------------------|-------------------------|-----------------------|
B|-------------------------|-------------------------|-12-------(12)---14----|
G|-(12)------(12)----------|-------------------------|-----------------------|
D|-------------------------|-12---------12-----------|-----------------------|
A|-------------------------|-------------------------|-----------------------|
E|-------------------------|-------------------------|-----------------------|


                                                              1.5
    a      +Q.     Q.     Q.     Q   E    +H.       Q.    Q   E
e|-------------------------------------|---------------------------|
B|-20b22==(20)r---20-----18-----17-----|---------------------------|
G|----------------------------------19-|-(19)------19----17--17----|
D|-------------------------------------|---------------------------|
A|-------------------------------------|---------------------------|
E|-------------------------------------|---------------------------|
|
 |          Q.     Q   E  Q   E  Q   E    +H.       Q.    Q   E
e|-------------------------------------|---------------------------|
B|---------12-------------------------|---------------------------|
G|-----------------------12------------|---------------------------|
D|----------------12------------12--12-|-(12)------12-------12----|
A|-------------------------------------|---------------------------|
E|-------------------------------------|---------------------------|


                ~~~~~~~
    Q.    +Q    E  +E   +Q    Q   E
e|--22----(22)--20-(20)-(20)--------||
B|-----------------------------------||
G|-----------------------------x-----||
D|-----------------------------x---x-||
A|-----------------------------------||
E|-----------------------------------||
|
 | +H.              Q.        Q.
e|-----------------------------------||
B|-----------------------------------||
G|-----------------------------------||
D|-(12)-------------12---------------||
A|-----------------------------------||
E|-----------------------------------||


   Gtr II
                      ~~~~~~~~~~~~~~~                               ~~~~~~~~~
    a       H.       +H.         +H.       +H       Q     H.       +H.
e|---------13-------(13)------|-(13)-------------------|--------------------|
B|---------13-------(13)------|-(13)------(13)--------|-15-------(15)------|
G|-12b14==(12)------(12)------|-(12)------(12)r-------|--------------------|
D|----------------------------|------------------------|--------------------|
A|----------------------------|------------------------|--------------------|
E|----------------------------|------------------------|--------------------|


                      7
  ~~~~~~
    +H.       +Q.    +Q    E        +H.       +Q.    +Q    E
e|-------------------------------|------------------------------|
B|-(15)------(15)---(15)--15b18==|=(15)------(15)r==(15)--13----|
G|-------------------------------|------------------------------|
D|-------------------------------|------------------------------|
A|-------------------------------|------------------------------|
E|-------------------------------|------------------------------|


     ~~~~          PM
    +H.       Q.   E E E    a      +H.       +Q.    +E   +E   E
e|-----------------------|-15b17==(15)------(15)---(15)r(15)p13-|
B|-(13)------13----------|--------------------------------------|
G|---------------------0-|--------------------------------------|
D|-----------------0-----|--------------------------------------|
A|-----------------------|--------------------------------------|
E|-----------------------|--------------------------------------|


    a      +Q    +E   +Q    E  Q   E  +Q   E    a      +E   +E   E  Q   E  Q   E  Q   E
e|-15b17==(15)--(15)r(15)--13-15-------------|-20b22==(20)r(20)p19-20--20s19--13-12--12-|
B|--------------------------------15-(15)----|------------------------------------------|
G|-------------------------------------------|------------------------------------------|
D|-------------------------------------------|------------------------------------------|
A|-------------------------------------------|------------------------------------------|
E|-------------------------------------------|------------------------------------------|


    +Q    E  Q   E  Q   E Q  E   E E E E E E E E E E E E   Q  E Q.   Q  H
e|-(12)--12-10--12s10--10-8----|-8p5---5-----------------|------------------|
B|-----------------------------|-----8---8p5-5-----------|------------------|
G|-----------------------------|---------------7p5-------|------------------|
D|-----------------------------|-------------------7p5---|------------------|
A|-----------------------------|-----------------------7S|=5--3-------------|
E|-----------------------------|-------------------------|------5----3--0---|


   Gtr III
                      ~~~~
    W.               +H.       H.
e|-19-------------|-(19)------21-------|
B|----------------|--------------------|
G|----------------|--------------------|
D|----------------|--------------------|
A|----------------|--------------------|
E|----------------|--------------------|


              ~~~~                    ~~~~~~~~~~~~~~~~~~~~
    H.       +H.         a  Q.    Q   E  +Q    E  +Q    E
e|-22-------(22)------|-22s24----24--24-(24)--24-(24)--24---|
B|--------------------|-------------------------------------|
G|--------------------|-------------------------------------|
D|--------------------|-------------------------------------|
A|--------------------|-------------------------------------|
E|--------------------|-------------------------------------|


    Q.    Q   E  Q   E  +Q.       Q   E  Q.    Q   E  Q   a  E
e|-24----20-----20-------------|-17--17-16----17--16-----------|
B|-----------24-----24-(24)---|---------------------17--16S17-|
G|-----------------------------|-------------------------------|
D|-----------------------------|-------------------------------|
A|-----------------------------|-------------------------------|
E|-----------------------------|-------------------------------|


    +Q.   Q   E  +Q    E  Q   E    Q   H     +Q    H
e|------------------------------|-----12----(12)--12----|
B|-(17)------12-(12)--11-10-----|-----------------12----|
G|---------------------------10S|=12--------------------|
D|------------------------------|-----------------------|
A|------------------------------|-----------------------|
E|------------------------------|-----------------------|


    Q   a  Q   Q   a  Q   Q   Q     a  Q.    a  Q.    Q   E  Q.
e|-12--11S12--12--11S12--12--12--|-11S12----11S12-----------------|
B|-12--11S12--12--11S12--12--12--|-11S12----11S12-----------------|
G|-------------------------------|-------------------13--12-------|
D|-------------------------------|--------------------------12----|
A|-------------------------------|--------------------------------|
E|-------------------------------|--------------------------------|


    ~~~
    H.       Q  E  Q  E    Q   E  H     E   H
e|----------------------|-------------------------||
B|----------------------|-12--11------------------||
G|----------12----13----|------------------12-----||
D|-12-------12----------|--------12--------12-----||
A|----------------------|--------------12-(12)----||
E|----------------------|-------------------------||


  Gtr I
   |--4:3---|
   E  E  E  E  E  E  E  E  E  E  E  E  E    E  E  E  Q   E  +Q    Q    E E
|-17p15p12-------------------------------|---------------------------------|
|----------15-17p15p12----12-------------|-------12-15--15-(15)--15--10---|
|----------------------15----15p14p12----|-12-14---------------------------|
|-------------------------------------14-|---------------------------------|
|----------------------------------------|---------------------------------|
|----------------------------------------|---------------------------------|


    a      +Q.    +Q     E  +Q    a      +E    Q.
e|-15b17==(15)---(15)r--15-(15)--15b17==(15)r-15-----|
B|---------------------------------------------------|
G|---------------------------------------------------|
D|---------------------------------------------------|
A|---------------------------------------------------|
E|---------------------------------------------------|


    a      Q   +E   +Q.    H.
e|-15b17==15--(15)r(15)---15------|
B|---------------------------------|
G|---------------------------------|
D|---------------------------------|
A|---------------------------------|
E|---------------------------------|


    /
    Q.    Q  E  Q.    Q.      Q.    Q  E  Q.   Q  E
e|-------------14----12----|-------------------------|
B|-------------------------|-------------15s==14-----|
G|-------------14----13----|-------------14s==13-----|
D|-------------------------|-------------------------|
A|-------------------------|-12----14----------------|
E|-10----12----------------|-------------------------|


    E  E  E  E  E  E      +Q.    +Q    E
e|-24p17---------------------------------|
B|-------24-24-24-24b27==(24)r==(24)--18-|
G|---------------------------------------|
D|---------------------------------------|
A|---------------------------------------|
E|---------------------------------------|


                                      Gtr III
                                                      ~~~
   E  Q   +E   Q       +Q    +H           Q   Q   Q   H.
e|------------------------------------||-14--14--14--14-----|
B|---18--(18)-18b22===(18)--(18)r----||-14--14--14--14-----|
G|------------------------------------||--------------------|
D|------------------------------------||--------------------|
A|------------------------------------||--------------------|
E|------------------------------------||--------------------|


    a  Q   Q   Q   Q   Q   Q     Q   Q   Q   Q   Q   Q
e|-12S14--14--14--14--12------|-12--14------------------|
B|-12S14--14--14--14------14--|-12------14--12------12--|
G|----------------------------|-----------------14------|
D|----------------------------|-------------------------|
A|----------------------------|-------------------------|
E|----------------------------|-------------------------|


          ~~~
    E  E  Q.    +Q.    Q   E E
e|--------------------14--14----|
B|--------------------14--14----|
G|-14---------------------------|
D|----14-14----(14)-------------|
A|-------14----(14)-------------|
E|------------------------------|


    Q.    Q  E  Q   a  Q  Q     Q.    Q  E  Q   a  Q  Q
e|-17----14----12--12S14-----|-17----14----12--12S14-----|
B|-----------------12S14-----|-----------------12S14-----|
G|---------------------------|---------------------------|
D|---------------------------|---------------------------|
A|---------------------------|---------------------------|
E|---------------------------|---------------------------|


                                                |--2:3---|
   a  Q   E  Q   E  Q   E  Q   E    Q  E  Q  E  E  E  E  E
|-14S17--14-12--14-12-----12-----|--------------------------||
|------------------12--14-12--14-|-12----------12-14-12-----||
|--------------------------------|-------14-------------14--||
|--------------------------------|--------------------------||
|--------------------------------|--------------------------||
|--------------------------------|--------------------------||


  4/4
   Gtr I
    ~~                 ~~~~
    Q   Q   Q   Q      Q    Q    Q   Q     Q   Q   Q   Q     Q.     E  H
e|-19--17--15--13--|--------------------|-----------------|-----------------|
B|-----------------|--17---15-----------|-----------------|-----------------|
G|-----------------|------------17--15--|-14--------------|-----------------|
D|-14--------------|-(14)--14----------|-----17--13------|------------------|
A|-----------------|--------------------|-------------17--|-15--------------|
E|-----------------|--------------------|-----------------|-----------------|
|  W                 +Q    Q    H
|
 | Gtr II
 |  H       Q   Q      Q    Q    Q   Q     Q   Q   Q   Q     Q    Q    Q   Q
e|-------------18--|--17---15-----------|-----------------|-----------------|
B|-----------------|------------18--17--|-15--------------|-----------------|
G|-----------------|--------------------|-----17--15--14--|-----------------|
D|-----------------|--------------------|-----------------|-17---15---------|
A|-----------------|--------------------|-----------------|-----------17--15|
E|-----------------|--------------------|-----------------|-----------------|


    Q   Q   Q   Q     Q   Q   Q   Q     Q   Q   Q   Q     Q   Q   H
e|-----------------|-----------------|-12--14--15--17--|-18--19----------||
B|-----------------|-----12--14--15--|-----------------|-----------------||
G|-------------12--|-14--------------|-----------------|-----------------||
D|-----12--14------|-----------------|-----------------|-----------------||
A|-14--------------|-----------------|-----------------|-----------------||
E|-----------------|-----------------|-----------------|-----------------||
|
 |  H       Q   Q     Q   Q   Q   Q     Q   Q   Q   Q     Q   Q   Q   Q
e|-----------------|-----------------|-------------12--|-14--15--17--18--||
B|-----------------|-----------------|-12--14--15------|-----------------||
G|-----------------|---------12--14--|-----------------|-----------------||
D|-----------------|-12--14----------|-----------------|-----------------||
A|-------------14--|-----------------|-----------------|-----------------||
E|-----------------|-----------------|-----------------|-----------------||


  Cadenza
   Gtr I
    a      +H      +E   E      +Q      +H       a      +Q    +Q
e|-17b19==(17)r===(17)-17b19==(17)--|-(17)r----17b19==(17)r=(17)--|
B|----------------------------------|-----------------------------|
G|----------------------------------|-----------------------------|
D|----------------------------------|-----------------------------|
A|----------------------------------|-----------------------------|
E|----------------------------------|-----------------------------|


                                             |--3--|
   a      +Q    +Q    a      +H        +Q    E  E  E  E  E  S  S  S  S
|-17b19==(17)r=(17)--17b19==(17)r===|=(17)--15h17p15----15-19-15----15---|
|-----------------------------------|----------------17----------17------|
|-----------------------------------|------------------------------------|
|-----------------------------------|------------------------------------|
|-----------------------------------|------------------------------------|
|-----------------------------------|------------------------------------|


      |--3--|
   E  S  S  S  S  S  S  S  S  S  S  S  S  S  S  S
|-17-15h17p15----15h19p15----15-17-15h17p15----15h|
|-------------17----------17----------------17----|
|-------------------------------------------------|
|-------------------------------------------------|
|-------------------------------------------------|
|-------------------------------------------------|


                                 |--3--|           |--3--|
   S  S  S  S  S  S  S  S  S  S  T  T  T  S  S  S  T  T  T  S
|-19p15----15-17p15p12----12-15-12h15p12------------------------|
|-------17-------------15----------------15-12-15-12h15p12------|
|----------------------------------------------------------15---|
|---------------------------------------------------------------|
|---------------------------------------------------------------|
|---------------------------------------------------------------|


         |--3--|        |--3--|
   S  S  T  T  T  S  S  S  S  S  S  E   a       +E   +E   S  S
|--------------------------------------------------------------|
|-12-15-12h15p12----12-----------------------------------------|
|----------------15----15p14p12----12-[14]b16==(14)r(14)-------|
|-------------------------------14-----------------------14p12-|
|--------------------------------------------------------------|
|--------------------------------------------------------------|


    a      +S   +E   S  S  E  S   S       +S   +S   S  E  E
e|----------------------------------------------------------|
B|----------------------------------------------------------|
G|-14b16==(14)r(14)-12-------14-[14]b16==(14)r(14)-12-------|
D|---------------------14-12--------------------------14-12-|
A|----------------------------------------------------------|
E|----------------------------------------------------------|


             /0.5    7_______/
    a  E  E  Q       +H        W
e|---------------------------|----------|
B|---------------------------|----------|
G|----------17------(17)-----|-0--------|
D|---------------------------|-0--------|
A|-14p12p10------------------|----------|
E|---------------------------|----------|


    a      +Q.     S  S  S S  S  S  S  S  S  S
e|-19b22==(19)r---19p17-19-9-17-17-16-15-17-17-|
B|---------------------------------------------|
G|---------------------------------------------|
D|---------------------------------------------|
A|---------------------------------------------|
E|---------------------------------------------|


            ~~~~~
    E      +Q    +S   S  S  S  S  S  S  S  S  S
e|----------------------------------------------|
B|-19b21==(19)r=(19)-17-19-19-17-17-15-15-17-17-|
G|----------------------------------------------|
D|----------------------------------------------|
A|----------------------------------------------|
E|----------------------------------------------|


                        1.5/        2/        2.5/         2.5/      1.5/        /2
     E       +Q    +S   S      S  E  S    S  E  S        S  E S      S E S     S E. E E
e|----------------------------------------------------|-----------------------------------|
B|----------------------------------------------------|-------------------------------0---|
G|-[16]b18==(16)r=(16)-14-----16-14-13---14-13-11-----|-13-11-9-----11-9-7-----9-7--7-0---|
D|----------------------------------------------------|---------------------|
A|----------------------------------------------------|---------------------|
E|----------------------------------------------------|---------------------|


                                  1.5     /7
   ~~~~~~~~~~~~~~~~~~~
                          |-3-|
   H    +H       Q  H     E E E   Q     Q  H
e|-------------|----------------|-----------------|
B|-------------|-x--------------|-----------------|
G|-7----(7)----|-7--7----10-7-9-|-7-----0--7------|
D|-------------|----------------|-------0---------|
A|-------------|----------------|-----------------|
E|-------------|----------------|-----------------|


  |--3--|
  S S E E S S S S S S S S S S E
|----------------------------------|
|----------------------------------|
|-7h9p7----------------------------|
|-------9p6h7h9--------------------|
|---------------7-5h7h9p7----------|
|-------------------------4h5h7---|


                  7/          5/          1/    1.5___/
   Q  Q  E E Q    W            W            H      a     +H       W
e|--------------|------------|------------|---------------------|------||
B|----3--3------|------------|------------|---------------------|------||
G|----3--3------|------------|------------|--------0-----(0)----|-0----||
D|--------------|------------|------------|-0------0-----(0)----|-0----||
A|---------2----|------------|------------|-0-------------------|------||
E|-0---------0--|-0----------|-0----------|---------------------|------||


  Eugene's Trick Bag
   Q=192
  4/4
   Gtr IV
   H    S S S S S S S S     S S S S S S S S S S S S S S S S    5x
e|----------------------||-------------------------------------||
B|----------------------||o-----------------------------------o||
G|--------2h4p2h5p2h4p2h||==5p2h4p2h5p2h4p2h5p2h4p2h5p2h4p2h===||
D|----------------------||-------------------------------------||
A|----------------------||o-----------------------------------o||
E|----------------------||-------------------------------------||


   S S S S S S S S S S S S S S S S   S S S S S E. +Q   Q
e|---------------------------------|-----------------------||
B|---------------------------------|-----------------------||
G|-5p2h4p2h5p2h4p2h5p2h4p2h5p2h4p2h|=5p2h4p2h5p2--(2)------||
D|---------------------------------|-----------------------||
A|---------------------------------|-----------------------||
E|---------------------------------|-----------------------||


   Q=130
   S S S S S S  S S  S S  S S S S S S   S S S S S S S S  S S S S S S S S
e|----------------8-12-8--------------|------------------------------------|
B|-------------10--------10-----------|---------------9-12p9---------------|
G|---------5-9--------------9-5-------|-----------7-9--------9p7-----------|
D|-------7----------------------7-----|-------6-9----------------9-6-------|
A|-----7------------------------------|---5-7------------------------7-5---|
E|-5h8----------------------------5h8-|-7----------------------------------|


   S S S  S S  S S S  S S S  S S  S S S
e|--------------------------------------|
B|-----------------8-10-8---------------|
G|---------------9--------9-------------|
D|----------7-11------------11-7--------|
A|-----7-10----------------------10-7---|
E|-5-9--------------------------------9-|


   S  S S S S  S  S  S  S  S  S  S S S S  S
e|------------------10-13-10------------------|
B|---------------10----------10---------------|
G|----------7-10----------------10-7----------|
D|--------7--------------------------7--------|
A|------8------------------------------8------|
E|-5h10----------------------------------10---|


   S  S S  S S  S  S  S  S  S  S  S S  S S  S
e|--------------------------------------------|
B|----------------------12--------------------|
G|----------------10-13----13-10--------------|
D|-----------9h12----------------12-9---------|
A|------8h11--------------------------11-8----|
E|-7h10------------------------------------10-|


                          H.=H
          PM------------|
  S S S S S S S S S S S S S  S S  S
|-------------------5---8-5-12-8-16---|
|---------------5-----5---------------|
|-----------5-----5-------------------|
|-------7-----7-----------------------|
|---7-----7---------------------------|
|-5---8-------------------------------|


                Q=150
     H.      Q       S  S  S  S  S  S  S  S  S  S  S  S  S  S  S  S
e|-(16)---------||-----------------------------17-15-13--------------||
B|--------------||o----13-17-13----15-17-15-13----------17-15-13----o||
G|--------------||--14----------16-------------------------------16--||
D|--------------||---------------------------------------------------||
A|--------------||o-------------------------------------------------o||
E|---0----------||---------------------------------------------------||


    S  S  S  S  S  S  S  S  S  S  S  S  S  S  S  S
e|-------------17-15-13----------19-17-15----------|
B|----14-17-14----------17-14-15----------18-17-15-|
G|-14----------------------------------------------|
D|-------------------------------------------------|
A|-------------------------------------------------|
E|-------------------------------------------------|


    S  S  S  S  S  S  S  S  S  S  S  S  S  S  S  S
e|----------------------------17-15-13-------------|
B|-------15----18-17-15----------------17-15-13----|
G|----16----16----------16-17-------------------16-|
D|-17----------------------------------------------|
A|-------------------------------------------------|
E|-------------------------------------------------|


    S  S  S  S  S  S  S  S  S  S  S  S  S  S  S  S
e|-------------------------------------------17----||
B|-------------18-17-15----------18-15----------16s||
G|----14-17-14----------17-13-16-------17-14-------||
D|-15----------------------------------------------||
A|-------------------------------------------------||
E|-------------------------------------------------||


  3/4
    S  S  S  S  S  S  S  S  S  S  S  S
e|----16-------14-------12-------10-----|
B|-17----17s15----15s14----14s12----12s=|
G|--------------------------------------|
D|--------------------------------------|
A|--------------------------------------|
E|--------------------------------------|


                                4/4
    S S  S S S S S S S S S S     S S S S S S S S S S S S S S S S
e|----9------7-----5-----4---||--7-4---0-7-4---0-7-4---0-7-4---0--||
B|-10---10s9---9s7---7s5---5-||o-----5-------5-------5-------5---o||
G|---------------------------||-----------------------------------||
D|---------------------------||-----------------------------------||
A|---------------------------||o---------------------------------o||
E|---------------------------||-----------------------------------||


     S S S S  S  S  S S  S  S  S S  S S  S S  4x
e||--7-4---0-14-11----0-17-14----0-12-9----0--||
B||o-----5---------12---------15--------10---o||
G||-------------------------------------------||
D||-------------------------------------------||
A||o-----------------------------------------o||
E||-------------------------------------------||


        S  S  S S S S S S  S  S  S S S S S S
e|-||--19-16----0-7-4---0-17-14----0-5-2---0--||
B|-||o-------17-------5---------15-------3---o||
G|-||-----------------------------------------||
D|-||-----------------------------------------||
A|-||o---------------------------------------o||
E|-||-----------------------------------------||


      S  S  S S  S S S S  S  S  S S S S S S
e||--22-19----0-10-7---0-20-17----0-8-5---0--||
B||o-------20--------8---------18-------6---o||
G||------------------------------------------||
D||------------------------------------------||
A||o----------------------------------------o||
E||------------------------------------------||


    S  S  S  S  S  S  S  S  S  S  S  S  S  S  S  S
e|-22-19-------19-----------------------------------|
B|-------21-18----21-18----21-18-------18-----------|
G|----------------------19-------19-16----19-16-----|
D|----------------------------------------------18--|
A|--------------------------------------------------|
E|--------------------------------------------------|


    S  S  S  S  S  S  S  S  S  S  S  S  S  S  S  S    H     H
e|-------------------------------------------------|-------------|
B|-------------------------------------------------|-------------|
G|-19-16-------16----------------------------------|--------2----|
D|-------18-15----18-15----18-15-------15----------|--------2----|
A|----------------------17-------17-14----17-14----|--------0----|
E|----------------------------------------------16-|-17---------|


                                                                      H.=H
     PM----------------------------------------------|
     |----6----| |----6----| |----6----|   |----6----| |-3-| |--3---|  |-3--|
  Q  S S S S S S S S S S S S S S S S S S   S S S S S S E E E E   E  E  E E  E
|----------------------------------------|-------------------------------24|
|----------------------------------------|-------------------------17------|
|----------------------------------------|-------------------9-------------|
|-2--------------------------------------|---------------------/14----21---|
|-2--------------------------------------|-------------7s2s7---------------|
|-0--0-0-0-0-0-0-0-0-0-0-0-0-0-0-0-0-0-0-|-0-0-0-0-0-0-------------------0-|


   W          S S S S S S S S S  S S S  S S  S  S
e|----------|-------------------------------------|
B|----------|-----------------------------9-10-12-|
G|----------|----------------------7-9-10---------|
D|----------|-------------6s7-9-10----------------|
A|----------|-------5-7-8-------------------------|
E|----------|-5-7-8-------------------------------|


   |--3--|  |--3--|
   E  E  E  E  E  E  E  E  E  E
|----10-12-13-16-17-19-20-22-24-|
|-13----------------------------|
|-------------------------------|
|-------------------------------|
|-------------------------------|
|-------------------------------|


                                        ~~~~~
    a      +Q    Q   a      +Q    Q     H.        Q
e|-24b25==(24)r-----24b26==(24)r-----|-29b31---------*|
B|-----------------------------------|---------------*|
G|-----------------------------------|-18------------*|
D|-----------------------------------|---------------*|
A|-----------------------------------|-19------------*|
E|-----------------------------------|---------------*|



************************************

| p    Pull-off
| x    Dead note
| r    Release
| b    Bend
| (n)  Ghost note
| ~    Vibrato
| /    Slide up
| h    Hammer-on
| [n]  Artificial harmonic (Pinch harmonic)
| pb   Pre-bend 

************************************
Suggest correction
comments
print report bad tab
13 comments total. Showing first comments.
0 reply
potato1 41 Aug 20, 2006 02:08 PM

good one
copied from www.mikesguitarsite.com
i would have to go all the way there when you can ge this here

0 reply
La Qotsa 274 Aug 21, 2006 08:19 AM, edited on December 12 2016, 07:02 pm

Exactly, stay on UG, not mikes guitar site, which is now closed.

-1 reply
njj246 120 Jun 20, 2007 11:08 AM

this is blatantly wrong like iof u are starting from the beggining u arent even close

guest
You may want to rate the tab now too:
select rating
Wanna post a correction for this tab? Suggest correction