Oops, an error
Loading. Please wait.

For The Love Of God intro tab

version 1
version 1
75,481 views 30 this week
6 commentsread comments
1 2 3 4 5
x 13
add to favorites
×
Save as Personal and add changes to this tab that will be seen only by you. Learn more ›
×
You can save this tab as Personal to edit and correct it or add notes. All changes will be seen only by you. Learn more »
launch autoscroll
font size
0
reset
how to read this tab
guitar tuner
backing track
0:00
0:00
edit
Autoscroll
slow
fast
+/-
esc
set tempo
stop
Author
Repeat Twice:
E---------------12p10--7------10----------------------------
B-------10-s12-----------8-s12---10-------------------------
G-----7-----------------------------------------------------
D--/9-------------------------------------------------------
A-----------------------------------------------------------
E-----------------------------------------------------------
                                             Dive--
E-12p10--7--------------------------------------------------
B----------8s12--12-12-12-----10----------------------------
G---------------------------------7h9p7h9-------------------
D-----------------------------------------------------------
A-----------------------------------------------------------
E--------------------------------------------0-w/bar--------

Thats All For Now

            
            
Suggest correction
Creating personal tab
Creating personal tab
You can edit any tab online and save it as your Personal.

You can edit, replace or remove any tab part or add personal notes – all changes will be seen only by you.

Personal tabs can be accessed anytime from any device, even offline.
Learn more »
comments
print report bad tab
6 comments total. Showing first comments.
0 reply
power freak 150 Oct 01, 2002 08:00 PM

There is no dive it is 15p10

0 reply
ninjaadam44 160 Dec 21, 2002 07:00 PM

he's going from e-10 to B-10 instead of the pulloff (which is kind of lame) but the end is wrong. it should be (starting at the B-8 on the second tab set)
e----------------------------------
B-10s12-12-12s10-10----5s8-7-------
G----------------------------9-7-9-
then let the open E ring.

0 reply
ninjaadam44 160 Dec 21, 2002 07:00 PM

the spaces got screwed up when that got posted. you do everything on the B, then do the part on the G.

guest
You may want to rate the tab now too:
select rating
Wanna post a correction for this tab? Suggest correction