Oops, an error
Loading. Please wait.

For The Love Of God bass

version 2
version 2
85 views 1 this week
no commentswrite comment
1 2 3 4 5
3 more votes to show rating
add to favorites
×
Save as Personal and add changes to this tab that will be seen only by you. Learn more ›
×
You can save this tab as Personal to edit and correct it or add notes. All changes will be seen only by you. Learn more »
launch autoscroll
font size
0
reset
guitar tuner
backing track
0:00
0:00
edit
Autoscroll
slow
fast
+/-
esc
set tempo
stop
Author
Arist: Steve Vai (God)
Song: For The Love Of God
Album: Passion and Warfare
Tabbed by: davidamato4
E-mail: davidamato4@gmail.com

Tuning: EADG

G|---------------------------------------|------------------------------------|
D|--------------------2------------------|--------------------3---------------|
A|---------------2-----------------------|---------------3--------------------|
E|0--------------------------------------|1-----------------------------------|
  1    +    2    +    3    +    4    +    1    +    2    +    3    +    4    +
G|---------------------------------------|--------------------2---------------|
D|--------------------2------------------|---------------2--------------------|
A|---------------2-----------------------|0-----------------------------------|
E|0--------------------------------------|------------------------------------|
  1    +    2    +    3    +    4    +    1    +    2    +    3    +    4    +
G|---------------------------------------|--------------------5---------------|
D|--------------------2------------------|---------------5--------------------|
A|---------------2-----------------------|3-----------------------------------|
E|0--------------------------------------|------------------------------------|
  1    +    2    +    3    +    4    +    1    +    2    +    3    +    4    +
G|---------------------------------------|------------------------------------|
D|--------------------3------------------|--------------------2---------------|
A|---------------3-----------------------|---------------2--------------------|
E|1--------------------------------------|0-----------------------------------|
  1    +    2    +    3    +    4    +    1    +    2    +    3    +    4    +
G|---------------------------------------|------------------------------------|
D|------------------1/2------------------|------------------2/3---------------|
A|---------------2-----------------------|---------------3--------------------|
E|0--------------------------------------|1-----------------------------------|
  1    +    2    +    3    +    4    +    1    +    2    +    3    +    4    +
G|---------------------------------------|--------------------2---------------|
D|------------------1/2------------------|---------------2--------------------|
A|---------------2-----------------------|0-----------------------------------|
E|0--------------------------------------|------------------------------------|
  1    +    2    +    3    +    4    +    1    +    2    +    3    +    4    +
G|---------------------------------------|------------------------------------|
D|--------------------2------------------|---------------5/--10---------------|
A|----------2----------------------------|3-----------------------------------|
E|0--------------------------------------|------------------------------------|
  1    +    2    +    3    +    4    +    1    +    2    +    3    +    4    +
G|---------------------------------------|------------------------------------|
D|--------------------3------------------|--------------------2---------------|
A|---------------3-----------------------|---------------2--------------------|
E|1--------------------------------------|0-----------------------------------|
  1    +    2    +    3    +    4    +    1    +    2    +    3    +    4    +
G|---------------------------------------|------------------------------------|
D|--------------------5------------------|--------------------3---------------|
A|---------------5-----------------------|---------------3--------------------|
E|3--------------------------------------|1-----------------------------------|
  1    +    2    +    3    +    4    +    1    +    2    +    3    +    4    +
G|---------------------------------------|------------------------------------|
D|--------------------2------------------|---------------.--------------------|
A|---------------2-----------------------|---------------7--------------------|
E|0--------------------------------------|5-----------------------------------|
  1    +    2    +    3    +    4    +    1    +    2    +    3    +    4    +
G|---------------------------------------|------------------------------------|
D|--------------------5-------5-5--------|--------------------3-------3-3-----|
A|---------------5-----------------------|---------------3--------------------|
E|3--------------------------------------|1-----------------------------------|
  1    +    2    +    3    +  a 4    +    1    +    2    +    3    +  a 4    +
G|---------------------------------------|-------------------/7---------------|
D|------------------1/2------------------|---------------7--------------------|
A|---------------2-----------------------|5-----------------------------------|
E|0--------------------------------------|------------------------------------|
  1    +    2    +    3    +    4    +    1    +    2    +    3    +    4    +
G|---------------------------------------|------------------------------------|
D|------------------1/2------------------|------------------2/3---------------|
A|---------------2-----------------------|---------------3--------------------|
E|0--------------------------------------|1-----------------------------------|
  1    +    2    +    3    +    4    +    1    +    2    +    3    +    4    +
G|---------------------------------------|------------------------------------|
D|--------------------2-------2-2--------|--------------------2---------------|
A|---------------2-----------------------|---------------2--------------------|
E|0--------------------------------------|0-----------------------------------|
  1    +    2    +    3    +  a 4    +    1    +    2    +    3    +    4    +
G|---------------------------------------|------------------------------------|
D|--------------------2------------------|--------------------5---------------|
A|---------------2-----------------------|---------------5--------------------|
E|0--------------------------------------|3-----------------------------------|
  1    +    2    +    3    +    4    +    1    +    2    +    3    +    4    +
G|---------------------------------------|------------------------------------|
D|--------------------3------------------|--------------------2---------------|
A|---------------3-----------------------|---------------2--------------------|
E|1-----------------------------1/3------|0-----------------------------------|
  1    +    2    +    3    +    4 e  +    1    +    2    +    3    +    4    +
G|---------------------------------------|------------------------------------|
D|------------------1/3------------------|------------------------------------|
A|---------------2-----------------------|---------------3/---8---------------|
E|0--------------------------------------|1-----------------------------------|
  1    +    2    +    3    +    4    +    1    +    2    +    3    +    4    +
G|---------------------------------------|--------------------2---------------|
D|--------------------2------------------|---------------2--------------------|
A|---------------2-----------------------|0-----------------------------------|
E|0--------------------------------------|------------------------------------|
  1    +    2    +    3    +    4    +    1    +    2    +    3    +    4    +
G|---------------------------------------|------------------------------------|
D|--------------------2------------------|--------------------5-----------5---|
A|---------------2-----------------------|---------------5--------------------|
E|0--------------------------------------|3-----------------------------------|
  1    +    2    +    3    +    4    +    1    +    2    +    3    +    4 e  +
G|---------------------------------------|--------------------------------------|
D|2-3-------------------3----------------|--------------------2-----------------|
A|-----------------3---------------------|---------------2----------------------|
E|---------------------------------------|0-------------------------------------|
  a 1    +    2    +    3    +    4    +  1    +    2    +    3    +     4     +
G|---------------------------------------|------------------------------------|
D|--------------------2------2--2-2------|--------------------3---------3/5\-3|
A|---------------2--------------------3\-|---------------3------------3-------|
E|0--------------------------------------|1-----------------------------------|
  1    +    2    +    3    +  a 4 e   +   1    +    2    +    3    +  a 4 e  +
G|----------------------------------------|-------------------------------13\----|
D|-----------------------2-------2-2----2\|--------------------2----------12\----|
A|------------------2---------------------|---------------2----------------------|
E|h4-0------------------------------------|0-------------------------------------|
  a  1    +    2    +    3    +  a 4 e  +  1    +    2    +    3    +     4     +
G|---------------------------------------|------------------------------------|
D|--------------------2------------------|----------------------------5/7\----|
A|---------------2-----------------------|---------------5/---10------3/5\----|
E|0--------------------------------------|3-----------------------------------|
  1    +    2    +    3    +    4    +    1    +    2    +    3    +  a 4    +
G|---------------------------------------|------------------------------------|
D|---------------------------------------|--------------------2---------------|
A|---------------3/---8------------------|---------------2--------------------|
E|1-------1------------------------------|0-----------------------------------|
  1    +  a 2    +    3    +    4    +    1    +    2    +    3    +    4    +
G|---------------------------------------|------------------------------------|
D|--------------------5------------5-----|--------------------3---------3/5\3-|
A|---------------5-------------------5\--|---------------3--------------------|
E|3--------------------------------------|1-----------------------------------|
  1    +    2    +    3    +    4  e  +   1    +    2    +    3    +    4   +
G|---------------------------------------|------------------------------------|
D|--------------------2------------9-----|0-------------------0------------7--|
A|---------------2------------0-9~~~~9--0|---------------0-------------------5|
E|0--------------------------------------|------------------------------------|
  1    +    2    +    3    +  a 4  e +  a 1    +    2    +    3    +    4  e + 
G|---------------------------------------|------------------------------------|
D|---------------------4/5------------5\-|--------------------------------10\-|
A|------------------5--------------------|---------------3/---8---------------|
E|5--3-----------------------------------|1-----------------------------------|
  a  1    +    2    +    3    +    4  e + 1    +    2    +    3    +    4  e +
G|---------------------------------------|------------------------------------|
D|---------------------------------------|--------------------9+--------------|
A|------------------5/7------------------|---------------7/-------------------|
E|0--------------7-----------------------|5-----------------------------------|
  1    +    2    +    3    +    4    +    1    +    2    +    3    +    4    +
G|---------------------------------------|------------------------------------|
D|---------------------------------------|------------------2/3---------------|
A|------------------5/7------------------|---------------3--------------------|
E|0--------------7-----------------------|1-----------------------------------|
  1    +    2    +    3    +    4    +    1    +    2    +    3    +    4    +
G|---------------------------------------|------------------------------------|
D|---------------------------------------|--------------------7---------------|
A|------------------5/7------------------|---------------7--------------------|
E|0--------------7-----------------------|5-----------------------------------|
  1    +    2    +    3    +    4    +    1    +    2    +    3    +    4    +
G|---------------------------------------|------------------4/5---------------|
D|---------------------------------------|---------------5--------------------|
A|------------------5/7------------------|3-----------------------------------|
E|0--------------------------------------|------------------------------------|
  1    +    2   7+    3    +    4    +    1    +    2    +    3    +    4    +
G|---------------------------------------|------------------------------------|
D|------------------2/3------------------|------------------------------------|
A|---------------3-----------------------|------------------5/7\--------------|
E|1--------------------------------------|0--------------7--------------------|
  1    +    2    +    3    +    4    +    1    +    2    +    3    +    4    +
G|---------------------------------------|
D|---------------------------------------|
A|---------------------------------------|
E|0~-------------------------------------|
  1    +    2    +    3    +    4    +    




"Walking the fine line... between Paegan and Christian"




| /  slide up
| \  slide down
| h  hammer-on
| p  pull-off
| ~  vibrato
| +  harmonic
| x  Mute note
} .  Staccato
  7
===============================================================================

            
            
Suggest correction
Creating personal tab
Creating personal tab
You can edit any tab online and save it as your Personal.

You can edit, replace or remove any tab part or add personal notes – all changes will be seen only by you.

Personal tabs can be accessed anytime from any device, even offline.
Learn more »
Give kudos to tab author, rate the tab!
1 2 3 4 5
comments
print report bad tab
guest
You may want to rate the tab now too:
select rating
Wanna post a correction for this tab? Suggest correction