Oops, an error
Loading. Please wait.

Frank tab

version 2
version 2

Whole song

Interactive

490 views 1 this week
no commentswrite comment
1 2 3 4 5
3 more votes to show rating
add to favorites
×
Save as Personal and add changes to this tab that will be seen only by you. Learn more ›
×
You can save this tab as Personal to edit and correct it or add notes. All changes will be seen only by you. Learn more »
launch autoscroll
font size
0
reset
how to read this tab
guitar tuner
edit
Autoscroll
slow
fast
+/-
esc
set tempo
stop
Author
-|-5---3---3---1---1---3--|1---0---0------------|-1---0---0-----------0-|-
-|------------------------|-----------3---3---1-|-------------3---3-----|-
-|-3----------------------|2--------------------|-0---------------------|-
-|------------------------|---------------------|-----------------------|-
-|------------------------|---------------------|-----------------------|-
-|------------------------|---------------------|-----------------------|-

-|------------------|------------------------|---------------|-3--------|-
-|3-1-1-------------|------------------------|1--------------|-3--------|-
-|--------3---3---2-|-2---h3p2p0------0------|---------------|-0--------|-
-|3-----------------|----------3-------------|---------------|----------|-
-|------------------|-1----------------------|---------------|----------|-
-|------------------|------------------------|-----1/--3-----|-3--------|-

-|------------|------------------|-------------------|------------------|-
-|------------|------------------|-------------------|------------------|-
-|------------|-5----5-5---5---5-|-------------------|------------------|-
-|------------|-5h7--7-7---5---5-|-5---5---5---5---5-|-3----3-3---3---3-|-
-|------------|------------------|-5h7-7p8-7---5---5-|-3h5--5-5---3---3-|-
-|3-3-3-3-3-3-|------------------|-------------------|------------------|-

-|---------------------|-----------------8----|-------------------------|-
-|---------------------|------------------8---|-------------------------|-
-|---------------------|-5----5-5--5--5-------|-------------------------|-
-|-3---3----3---3---3--|-5h7--7-7--5--5-------|-5----5----5---5--5------|-
-|-3h5-5h6--5---3---3--|----------------------|-5h7--7p8--7---5--5-7\5--|-
-|---------------------|----------------------|-------------------------|-

-|-------------|--------------------|-------------|---------------------|-
-|-------------|--------------------|-1-----------|---------------------|-
-|-------3---2-|--------------------|-0-----------|-------------0-------|-
-|-3---3-3-3-3-|-3----3----3---3----|-------------|2h3--3-3-3-3-0--3----|-
-|-3h5-5-5-3-3-|-3h5--5h6--5---3----|-3-----------|1----1-1-1-1-1-------|-
-|-------------|--------------------|----5\3-1-1--|---------------------|-

-|--------------3--|------------------------|--------------------------|-
-|---------------3-|------------------------|--------------------------|-
-|-----------------|------------------------|------------------------0-|-
-|-0h2--2-2-3-2----|-2h3--3-3-3-3/5-3-------|-0h2--2-2-3-2h3p2p0-------|-
-|-3----3-3-3-3----|-1----1-1-1-1-----------|-3----3-3-3-3--------3----|-
-|-----------------|------------------------|--------------------------|-

-|----------------------|-----------------3/5--5\3-|-------------------|-
-|----------------------|-----------------3/5--5\3-|-------------------|-
-|-5\3----------3/5-3---|--------------------------|-------------------|-
-|-5\3--0-0-0-0-3/5-3---|-0h2--2-2-3--2------------|-2h3--3-3-3-3/5--3-|-
-|-3----1-1-1-1-1/3-1---|-3----3-3-3--3------------|-1----1-1-1-1------|-
-|----------------------|--------------------------|-------------------|-

-|-------------------|------------------------|------------------------|-
-|-----------3/5\3-1-|--------------/5\3/5----|-------------3/5\3-1----|-
-|-----------2/4\2-0-|--------------/4\2/4----|-------------2/4\2-0----|-
-|---3--7-5----------|---3---7--5-------------|-----3--7-5-------------|-
-|--3--7--5----------|--3---7---5-------------|---3--7---5-------------|-
-|-1--5---3----------|-1---5----3-------------|-1--5-----3-------------|-

-|------------------------|--------------|/10--------10----------|-
-|---1-----5------3-------|--------------|---12-10-----10--------|-
-|-----0-----5----0-------|--------------|---------------10------|-
-|--0----------5--0-------|--------------|-----------------------|-
-|------------------------|--------------|-----------------------|-
-|-1------5-------3-------|--3-3-3-3-3-3-|-----------------------|-

-|---------------------|------------------------|--------------------10-|-
-|-/12----------10-----|------------------------|--------------------10-|-
-|----12-10-9h10--10-9-|------------------------|-------------12-12--10-|-
-|---------------------|-12h14-12-10-9h10-------|-------12-12-12-12--10-|-
-|---------------------|------------------12----|-10-10-10-10-10-10--10-|-
-|---------------------|------------------------|-----------------------|-

-|----------------15---|-------------------------|------------------13--|-
-|-13----13-13-13---15-|-------------------------|-10h1211-11-10-10---13|-
-|-12h14-14-14-12------|-12----12----12-12-------|-10---10-10-10-10-----|-
-|---------------------|-12h14-14h15-14-12-14\12-|-10h1212-12-10-10-----|-
-|---------------------|-------------------------|----------------------|-
-|---------------------|-------------------------|----------------------|-

-|---------------------------------|------------------------|-
-|---------------------------------|-13----13-13-13-/13-----|-
-|-10----10----10-10---------------|-12h14-14-14-12----14-12|-
-|-10h12-12h13-12-10---------------|------------------------|-
-|------------------/12-10-8-/12-10|------------------------|-
-|---------------------------------|------------------------|-

-|---------------------------------------|---------------------|-
-|---------------------------------------|-10h11-11-11-10-10---|-
-|-12----12----12-12-12------------------|-10----10-10-10-10---|-
-|-12h14-14h15-14-12-12-14p12\10---/14-12|-10h12-12-12-10-10---|-
-|---------------------------------------|---------------------|-
-|---------------------------------------|-------------------13|-

-|--------------------------------|-------------------------|-
-|-10h11-11/13\11----10-----------|-------------------------|-
-|-10-------------10-10-----------|-9h10-10-10-10-10-/12\10-|-
-|-10h12-12/14\12-10--------------|-8-----8--8--8--8-/10\8--|-
-|----------------------10\8------|-8-----8--8--8--8-/10----|-
-|---------------------------8-8--|-------------------------|-

-|------------------8-|----------------------|-------------------------|-
-|---------------8--8-|----------------------|-------------------------|-
-|-9h10-9--9-10--9----|9h1010-10-10-10-/12\10|-9h10-9--9-10-9h10p9-7---|-
-|10---10-10-10-10----|8----8--8--8--8-/10\8-|10---10-10-------------10|-
-|--------------------|8----8--8--8--8-/8----|-------------------------|-
-|--------------------|----------------------|-------------------------|-

-|-8--8\6----------------|-----------------------------|-
-|-8--8\6-6-6-6-6--/10---|---------------8-------------|-
-|-9--9\7-7-7-7-7--/10-10|-9h10-9--9-10--9-10--9-10--9-|-
-|10-10\8-8-8-8-8--/10-10|10---10-10-10-10-10-10-10-10-|-
-|-----------------------|-----------------------------|-
-|-----------------------|-----------------------------|-

-|-8-8\6-6-6-6-6-/13-13-|--------------------|---------------|-
-|-8-8\6-6-6-6-6-/13-13-|--------------------|-10/12--10-----|-
-|-9-9\7-7-7-7-7--------|------10------14-12-|-10/12--10--12-|-
-|1010\8-8-8-8-8--------|---10-------14---12-|------------12-|-
-|-------------------12\|-8-------12------10-|---------------|-
-|----------------------|--------------------|---------------|-

-|-----------------|---/12---10---/12--|------------------|-
-|-----------------|---/12---10---/12--|------------------|-
-|----10----14--12-|-------------------|-----10---14--12--|-
-|--10----14----12-|-------------------|---10----14---12--|-
-|-8----12------10-|-------------------|--8-----12----10--|-
-|-----------------|-------------------|------------------|-

-|---------------|----------------|----------------|-------10--------10|-
-|--10/12-10-----|--------10------|---------10-----|---------10------10|-
-|--10/12-10-12--|-----------10---|------------10--|-----12-----12---10|-
-|-----------12--|------10--------|-------10-------|-------------------|-
-|---------------|---/8-----------|---/12----------|--10---------------|-
-|---------------|----------------|----------------|-------------------|-

-|/19p17-15------|--------------|--------------------|------------------|-
-|---------15h17-|18p17-15-13-12|13-12---------------|------------------|-
-|---------------|--------------|------14-12-14-12-10|-9-h10p9----------|-
-|---------------|--------------|--------------------|--------12-10-9---|-
-|---------------|--------------|--------------------|---------------12-|-
-|---------------|--------------|--------------------|------------------|-

-|----10----8------|-----5-----------|----------------|-----------5-6p5-|-
-|-----10----8-----|----5-5------5---|--------3---/8--|-6------1--6-----|-
-|-----------------|---5---5----5-5--|-------4--------|-5-----2---5-----|-
-|-----------------|-----------4---4-|------5---------|-7----3----------|-
-|10------8----7\5-|-5--------5------|-----5----------|-----3-----------|-
-|-----------------|-----------------|---3------------|----1------------|-

-|----3-------|------10------8|-----7-8p7-|------5---1-|--------------3-|-
-|---3-----6--|----11------9--|---8-------|----6-----3-|---1---1---1--0-|-
-|--4-----7---|--10------8----|-7---------|--5-------4-|--0---0----0--0-|-
-|-------8----|---------------|-----------|----------5-|-3---2-----0----|-
-|------8-----|---------------|-----------|----------5-|----------------|-
-|3----6------|---------------|-----------|----------3-|--------------3-|-

-|-/15-----------------|----------------------|---------------------|-
-|-----15--------------|-15/17\15-------------|-/15-13--------------|-
-|--------14h16--16----|---------14\12--------|-------12/16---------|-
-|---------------------|----------------------|---------------------|-
-|---------------------|----------------------|---------------------|-
-|---------------------|----------------------|---------------------|-

-|-15--13--11--10------|-10h11-10-------------|-/15-----------------|-
-|-15--13--11--10------|---------10\9/10------|----15-16-15---------|-
-|-16--14--12--11------|----------------------|---------------------|-
-|--------------0------|----------------------|---------------------|-
-|---------------------|----------------------|---------------------|-
-|---------------------|----------------------|---------------------|-

-|---------------------|----------------------|----14--15-14--------|-
-|--16---17------------|----------------------|--15--15------14-----|-
-|---------------------|----------------------|---------------------|-
-|---------------------|----------------0-----|---------------------|-
-|---------------------|----------------------|---------------------|-
-|---------------------|-------12-\-----------|---------------------|-

                         bend                     bend
-|------19-----------|-19-20-19--------------|-15-17-15--------------|-
-|-19------19--------|---------17\15---------|----------15\13--------|-
-|--19------14h16/18-|---------------12h14/16|---------------12h14-12|-
-|-------------------|-----------------------|-----------------------|-
-|-------------------|-----------------------|-----------------------|-
-|-------------------|-----------------------|-----------------------|-

ambulance here (whamy), then repeat part #1 with minor variations
-|-15------------------|----------------------|---------------------|-
-|---------------------|----------------------|---------------------|-
-|---------------------|----------------------|---------------------|-
-|---------------------|----------------------|---------------------|-
-|---------------------|----------------------|---------------------|-
-|---------------------|----------------------|---------------------|-

            
            
Suggest correction
Creating personal tab
Creating personal tab
You can edit any tab online and save it as your Personal.

You can edit, replace or remove any tab part or add personal notes – all changes will be seen only by you.

Personal tabs can be accessed anytime from any device, even offline.
Learn more »
Give kudos to tab author, rate the tab!
1 2 3 4 5
comments
print report bad tab
guest
You may want to rate the tab now too:
select rating
Wanna post a correction for this tab? Suggest correction