Oops, an error
Loading. Please wait.

Kill The Guy With The Ball tab

version 1
version 1

Whole song

Interactive

1,491 views 1 this week
no commentswrite comment
1 2 3 4 5
3 more votes to show rating
add to favorites
×
Save as Personal and add changes to this tab that will be seen only by you. Learn more ›
×
You can save this tab as Personal to edit and correct it or add notes. All changes will be seen only by you. Learn more »
launch autoscroll
font size
0
reset
how to read this tab
guitar tuner
edit
Autoscroll
slow
fast
+/-
esc
set tempo
stop
Author
                          Kill the Guy With the Ball                            
By Steve Vai
As tabbed by Ollie B.  From the album Sound Theories
                                                                       Steve Vai
Guitar1



E||-------|-------|-------|-------|-------|-------|-------|-------|-------|
B||-------|-------|-------|-------|-------|-------|-------|-------|-------|
G||-------|-------|-------|-------|-------|-------|-------|-------|-------|
D||-------|-------|-------|-------|-------|-------|-------|-------|-------|
A||-------|-------|-------|-------|-------|-------|-------|-------|-------|
E||-------|-------|-------|-------|-------|-------|-------|-------|-------|


                                                           \1/       
                                                  H        H         
-------|-------|-------|-------|-------|-------|-----------8--------|
-------|-------|-------|-------|-------|-------|--------------------|
-------|-------|-------|-------|-------|-------|--------------------|
-------|-------|-------|-------|-------|-------|--------------------|
-------|-------|-------|-------|-------|-------|--------------------|
-------|-------|-------|-------|-------|-------|--------------------|


-------------------|-------------------|-------------------|-------------------|
-------------------|-------------------|-------------------|-------------------|
-------------------|-------------------|-------------------|-------------------|
-------------------|-------------------|-------------------|-------------------|
-------------------|-------------------|-------------------|-------------------|
-------------------|-------------------|-------------------|-------------------|


                                               \1/        \1/         
                                          S  S E.  Q    S E           
-------------------|-------------------|--9b-7-3--------9-8---|------|
-------------------|-------------------|----------------------|------|
-------------------|-------------------|----------------------|------|
-------------------|-------------------|----------------------|------|
-------------------|-------------------|----------------------|------|
-------------------|-------------------|----------------------|------|


-------------------|-------------------|-------------------|-------------------|
-------------------|-------------------|-------------------|-------------------|
-------------------|-------------------|-------------------|-------------------|
-------------------|-------------------|-------------------|-------------------|
-------------------|-------------------|-------------------|-------------------|
-------------------|-------------------|-------------------|-------------------|


              \1/                                                   
  |-3-| |-3-| |--3--|                                               
  S S S S S S S   S S Q                                             
--7-6-7-6-5-6-5---4-5-3----|-------------------|-------------------|
---------------------------|-------------------|-------------------|
---------------------------|-------------------|-------------------|
---------------------------|-------------------|-------------------|
---------------------------|-------------------|-------------------|
---------------------------|-------------------|-------------------|


                                        \1/                      
                      |-3-| |-3-| |-3-| 3                        
                      S S S S S S S S S S                        
-------------------|--5-4-5-6-5-6-7-6-7-8---|-------------------|
-------------------|------------------------|-------------------|
-------------------|------------------------|-------------------|
-------------------|------------------------|-------------------|
-------------------|------------------------|-------------------|
-------------------|------------------------|-------------------|


-------------------|-------------------|-------------------|-------------------|
-------------------|-------------------|-------------------|-------------------|
-------------------|-------------------|-------------------|-------------------|
-------------------|-------------------|-------------------|-------------------|
-------------------|-------------------|-------------------|-------------------|
-------------------|-------------------|-------------------|-------------------|


                      \1/                                                       
                      W                                                         
-------------------|-------------------|-------------------|-------------------|
-------------------|-------------------|-------------------|-------------------|
-------------------|-------------------|-------------------|-------------------|
-------------------|-------------------|-------------------|-------------------|
-------------------|-------------------|-------------------|-------------------|
-------------------|--0----------------|-------------------|-------------------|


                        NH  NH  NH  NH                              
                        S   S   S   Q    E  E                       
-------------------|---------------------------|-------------------|
-------------------|---------------------------|-------------------|
-------------------|---------------------------|-------------------|
-------------------|----------<>0-----------0--|-------------------|
-------------------|--<>0---------<>0----0-----|-------------------|
-------------------|------<>0------------------|-------------------|


                                          PM PM PM PM   PM PM    
                                          S  S  S  Q    T  T  S  
-------------------|-------------------|------------------------|
-------------------|-------------------|------------------------|
-------------------|-------------------|------------------------|
-------------------|-------------------|------------------------|
-------------------|-------------------|------------------------|
-------------------|-------------------|--0--0--0--0----0--0--0-|


-------------------|-------------------|-------------------|
-------------------|-------------------|-------------------|
-------------------|-------------------|-------------------|
-------------------|-------------------|-------------------|
-------------------|-------------------|-------------------|
-------------------|-------------------|-------------------|


  PM PM PM PM PM PM                                              
  S  S  S  E  S  S  S S                                          
------------------------|-------------------|-------------------|
------------------------|-------------------|-------------------|
------------------------|-------------------|-------------------|
------------------------|-------------------|-------------------|
------------------------|-------------------|-------------------|
--0--0--0--0--0--0--0-0-|-------------------|-------------------|


                                                               \1/       
                                                               H         
-------------------|-------------------|-------------------|--10--------|
-------------------|-------------------|-------------------|------------|
-------------------|-------------------|-------------------|------------|
-------------------|-------------------|-------------------|------------|
-------------------|-------------------|-------------------|------------|
-------------------|-------------------|-------------------|------------|


               \1/                                               
               H                               W                 
-----------|--14--------|-------------------|-------------------|
-----------|------------|-------------------|-------------------|
-----------|------------|-------------------|-------------------|
-----------|------------|-------------------|-------------------|
-----------|------------|-------------------|-------------------|
-----------|------------|-------------------|-------------------|


                      \1/                         
  W                   Q.     S S S S S S S S S S  
-------------------|-----------------------------|
-------------------|-----------------------------|
-------------------|-----------------------------|
-------------------|-----------------------------|
-------------------|--4------4-2---3-1---2-0-----|
-------------------|-------------2-----1-----0-0-|


  |-3-| |-3-| |-3-| |-3-| |-3-|  |-3-|  |-3-|  |--3-|  
  S S S S S S S S S S S S S S S  S S S  S S S  S  S S  
------------------------------------------------------|
------2-----3-----4-----5-----6------7------8-------9-|
----3-----4-----5-----6-----7------8------9------10---|
--5-----6-----7-----8-----9-----10-----11-----12------|
------------------------------------------------------|
------------------------------------------------------|


                                       W                               
   |--3--|  |--3--|  |--3--|  |--3--|                                  
   S  S  S  S  S  S  S  S  S  S  S  S  H             W                 
-------------------------------------------------|--------------------|
--------10-------11-------12-------13-14~--------|---L----------------|
-----11-------12-------13-------14---------------|--------------------|
--13-------14-------15-------16------------------|--------------------|
-------------------------------------------------|--------------------|
-------------------------------------------------|--------------------|


-------------------|-------------------|-------------------|-------------------|
-------------------|-------------------|-------------------|-------------------|
-------------------|-------------------|-------------------|-------------------|
-------------------|-------------------|-------------------|-------------------|
-------------------|-------------------|-------------------|-------------------|
-------------------|-------------------|-------------------|-------------------|


-------------------|-------------------|-------------------|-------------------|
-------------------|-------------------|-------------------|-------------------|
-------------------|-------------------|-------------------|-------------------|
-------------------|-------------------|-------------------|-------------------|
-------------------|-------------------|-------------------|-------------------|
-------------------|-------------------|-------------------|-------------------|


-------------------|-------------------|-------------------|-------------------|
-------------------|-------------------|-------------------|-------------------|
-------------------|-------------------|-------------------|-------------------|
-------------------|-------------------|-------------------|-------------------|
-------------------|-------------------|-------------------|-------------------|
-------------------|-------------------|-------------------|-------------------|


-------------------|-------------------|-------------------|-------------------|
-------------------|-------------------|-------------------|-------------------|
-------------------|-------------------|-------------------|-------------------|
-------------------|-------------------|-------------------|-------------------|
-------------------|-------------------|-------------------|-------------------|
-------------------|-------------------|-------------------|-------------------|


-------------------|-------------------|-------------------|-------------------|
-------------------|-------------------|-------------------|-------------------|
-------------------|-------------------|-------------------|-------------------|
-------------------|-------------------|-------------------|-------------------|
-------------------|-------------------|-------------------|-------------------|
-------------------|-------------------|-------------------|-------------------|


-------------------|-------------------|-------------------|-------------------|
-------------------|-------------------|-------------------|-------------------|
-------------------|-------------------|-------------------|-------------------|
-------------------|-------------------|-------------------|-------------------|
-------------------|-------------------|-------------------|-------------------|
-------------------|-------------------|-------------------|-------------------|


-------------------|-------------------|-------------------|-------------------|
-------------------|-------------------|-------------------|-------------------|
-------------------|-------------------|-------------------|-------------------|
-------------------|-------------------|-------------------|-------------------|
-------------------|-------------------|-------------------|-------------------|
-------------------|-------------------|-------------------|-------------------|


-------------------|-------------------|-------------------|-------------------|
-------------------|-------------------|-------------------|-------------------|
-------------------|-------------------|-------------------|-------------------|
-------------------|-------------------|-------------------|-------------------|
-------------------|-------------------|-------------------|-------------------|
-------------------|-------------------|-------------------|-------------------|


-------------------|-------------------|-------------------|-------------------|
-------------------|-------------------|-------------------|-------------------|
-------------------|-------------------|-------------------|-------------------|
-------------------|-------------------|-------------------|-------------------|
-------------------|-------------------|-------------------|-------------------|
-------------------|-------------------|-------------------|-------------------|


-------------------|-------------------|-------------------|-------------------|
-------------------|-------------------|-------------------|-------------------|
-------------------|-------------------|-------------------|-------------------|
-------------------|-------------------|-------------------|-------------------|
-------------------|-------------------|-------------------|-------------------|
-------------------|-------------------|-------------------|-------------------|


-------------------|-------------------|-------------------|-------------------|
-------------------|-------------------|-------------------|-------------------|
-------------------|-------------------|-------------------|-------------------|
-------------------|-------------------|-------------------|-------------------|
-------------------|-------------------|-------------------|-------------------|
-------------------|-------------------|-------------------|-------------------|


-------------------|-------------------|-------------------|-------------------|
-------------------|-------------------|-------------------|-------------------|
-------------------|-------------------|-------------------|-------------------|
-------------------|-------------------|-------------------|-------------------|
-------------------|-------------------|-------------------|-------------------|
-------------------|-------------------|-------------------|-------------------|


-------------------|-------------------|-------------------|-------------------|
-------------------|-------------------|-------------------|-------------------|
-------------------|-------------------|-------------------|-------------------|
-------------------|-------------------|-------------------|-------------------|
-------------------|-------------------|-------------------|-------------------|
-------------------|-------------------|-------------------|-------------------|


-------------------|-------------------|-------------------|-------------------|
-------------------|-------------------|-------------------|-------------------|
-------------------|-------------------|-------------------|-------------------|
-------------------|-------------------|-------------------|-------------------|
-------------------|-------------------|-------------------|-------------------|
-------------------|-------------------|-------------------|-------------------|


-------------------|-------------------|-------------------|-------------------|
-------------------|-------------------|-------------------|-------------------|
-------------------|-------------------|-------------------|-------------------|
-------------------|-------------------|-------------------|-------------------|
-------------------|-------------------|-------------------|-------------------|
-------------------|-------------------|-------------------|-------------------|


-------------------|-------------------|-------------------|-------------------|
-------------------|-------------------|-------------------|-------------------|
-------------------|-------------------|-------------------|-------------------|
-------------------|-------------------|-------------------|-------------------|
-------------------|-------------------|-------------------|-------------------|
-------------------|-------------------|-------------------|-------------------|


-------------------|-------------------|-------------------|-------------------|
-------------------|-------------------|-------------------|-------------------|
-------------------|-------------------|-------------------|-------------------|
-------------------|-------------------|-------------------|-------------------|
-------------------|-------------------|-------------------|-------------------|
-------------------|-------------------|-------------------|-------------------|


-------------------|-------------------|-------------------|
-------------------|-------------------|-------------------|
-------------------|-------------------|-------------------|
-------------------|-------------------|-------------------|
-------------------|-------------------|-------------------|
-------------------|-------------------|-------------------|


  H         E  Q    E     E  Q    E  E   Q     E     Q    Q    Q    Q     
-----------------------|--------------------------|------------7---------|
------------6-------7--|--L-------8--L------------|--9---------7---------|
------------6-------7--|--L-------8--L------------|--9-------------------|
------------6-------7--|--L-------8--L------------|--9-------------------|
--8~-----------7-------|-----6--------------------|----------------------|
-----------------------|----------------10----10--|-------9---------8----|


                            |-----3----|    |----3----|     
  E  Q    E  E  Q    E      Q     Q    Q    Q    Q    Q     
--8-------9--L----------|--10----------8---------9---------|
--8-------9--L----------|--10----------8---------9---------|
------------------------|----------------------------------|
------------------------|----------------------------------|
------------------------|----------------------------------|
-----7----------6----6--|--------10---------9---------8----|


   |-----3----|     |-----3----|                                      
   Q    Q     Q     Q    Q     Q        E  E   E  E   E   E   E   E   
--10---------11----------9----------|--10-----11-----12------10------|
--10---------11----------9----------|--10-----11-----12------10------|
------------------------------------|--------------------------------|
------------------------------------|--------------------------------|
------------------------------------|--------------------------------|
--------7----------11---------10----|------9------8------12------11--|


   E   E   E  E   E  E   E  E      E  E   E  E   E  E   E  E   
--11------12-----13-----13-----|--14-----14-----14-----14-----|
--11------12-----13-----14-----|--14-----14-----14-----14-----|
-------------------------------|------------------------------|
-------------------------------|------------------------------|
-------------------------------|------------------------------|
------10------9------8------8--|------8------8------8------8--|


   E  E   E  E   E  Q     E      Q     E   E  E   E   E   E   
--14-----14-----12-----------|-------------------------------|
--14-----14-----12-----------|--15--------15--L--15------15--|
-----------------------------|--14--------14--L--14------14--|
-----------------------------|-------------------------------|
--------------------9----14--|--------14-------------15------|
------8------8---------------|-------------------------------|


  E   E   E   E   Q     Q        Q     E   E  E   E   Q     
-----------------------------|-----------------------------|
--L--15----------16----16----|--15--------15--L--15--------|
--L--14----------15----15----|--14--------14--L--14--------|
-----------------------------|-----------------------------|
---------14--15--------------|--------14-------------14----|
-----------------------------|-----------------------------|


   |-----3-----|                                               
   Q     Q     Q     Q     Q        Q     E   E  E   E   Q     
--------------------------------|-----------------------------|
--15----15----------16----16----|--15--------15--L--15--------|
--14----14----------15----15----|--14--------14--L--14--------|
--------------------------------|-----------------------------|
--------------14----15----15----|--------14-------------14----|
--------------------------------|-----------------------------|


   |-----3-----|                    |-----3-----|    |-----3-----|     
   Q     Q     Q     Q     Q        Q     Q     Q    Q     Q     Q     
--------------------------------|--17----17---------------17----17----|
--15----15----------16----16----|--15----15----15---------15----15----|
--14----14----------15----15----|--14----14----14---------14----14----|
--------------------------------|-------------------------------------|
--------------14----------------|-------------------------------------|
--------------------------------|--------------------0----------------|


   |-----3-----|                    |-----3-----|     |-----3----|     
   Q     Q     Q     Q     Q        Q     Q     Q     Q     Q    Q     
--------------------------------|--------------17----------17---------|
--15----15----------16----16----|--15----------15----------15---------|
--14----14----------15----15----|--14----------14----------14---------|
--------------------------------|--14----------14----------14---------|
--------------14----15----15----|--------14----------14---------------|
--------------------------------|---------0-----------0----------0----|


   |-----3----|                                            
   Q    Q     Q     Q     Q        Q     Q     Q     Q     
--17---------17----------------|--------------------------|
--15---------15----16----16----|--15----------15----------|
--14---------14----15----15----|--14----------14----------|
--14---------14----------------|--------------------------|
-------------------15----15----|--14----14----14----14----|
--------0----------------------|--------------------------|


   |-----3-----|                                            
   Q     Q     Q     Q     Q        Q     Q     Q     Q     
--------------------------------|--------------------------|
--15----14----15----16----16----|--16----------16----------|
--14----13----14----15----15----|--15----------15----------|
--------------------------------|--------------------------|
--14----13----14----15----15----|--15----15----15----15----|
--------------------------------|--------------------------|


   W                    W                  
--------------------|--------------------||
--16----------------|---L----------------||
--15----------------|---L----------------||
--------------------|--------------------||
--15----------------|---L----------------||
--------------------|--------------------||




Duration Legend
---------------
W - whole
H - half
Q - quarter
E - 8th
S - 16th
T - 32nd
X - 64th
. - note dotted
|-n-|  - n-tuplets


Tablature Legend
----------------
L - tied note
x - dead note
g - grace note
(n) - ghost note
> - accentuded note
NH - natural harmonic
AH - artificial harmonic
TH - tapped harmonic
SH - semi harmonic
PH - pitch harmonic
h - hammer on
p - pull off
b - bend
br - bendRelease
pb - preBend
pbr - preBendRelease
brb - bendReleaseBend
\n/ - tremolo bar dip
\n - tremolo bar dive
-/n - tremolo bar Release up
/n\ - tremolo bar inverted dip
/n - tremolo bar return
-\n - tremolo bar Release down
S - shift slide
s - legato slide
/ -  slide into from below or out of upwards
\ -  slide into from above or out of downwards
~ - vibrato
W - wide vibrato
tr - trill
TP - tremolo picking
T - tapping
S - slap
P - pop
< - fade in
^ - brush up
v - brush down

            
            
Suggest correction
Creating personal tab
Creating personal tab
You can edit any tab online and save it as your Personal.

You can edit, replace or remove any tab part or add personal notes – all changes will be seen only by you.

Personal tabs can be accessed anytime from any device, even offline.
Learn more »
Give kudos to tab author, rate the tab!
1 2 3 4 5
comments
print report bad tab
guest
You may want to rate the tab now too:
select rating
Wanna post a correction for this tab? Suggest correction