Oops, an error
Loading. Please wait.

Mjolnir Mix Tab

14,362 views 6 this week
7 commentsread comments
1 2 3 4 5
x 7
add to favorites
launch autoscroll
font size
0
reset
how to read this tab
guitar tuner
Autoscroll
slow
fast
+/-
esc
set tempo
stop
Help us to improve Ultimate-Guitar.com Take our survey!
×
Song: Halo Theme Song, Mjolnir Mix | Song by: Steve Vai
Tab by tri.thorn | email: blackeyedshinigami@gmail.com
I tabbed this song by ear. Enjoy.

Standard tuning

e---0-0-2-3-0-5-3-2------------------|---------------------|
B--------------------0h2-3-2----2p0--|-0h2-3-5/10-7-5-8-7--|
G-----------------------------2------|---------------------|
D------------------------------------|---------------------|
A------------------------------------|---------------------|
E------------------------------------|---------------------|

e -----------|-----0-----2-----3-----5-55-3-2--------------|
B ---3/7-2-0-|---------------------------------12-12-14-15-|
G -----------|---------------------------------------------|
D -----------|---------------------------------------------|
A -----------|---------------------------------------------|
E -----------|-000---000---000---000-----------------------|

e----------------------------------------------------------|
B---12-15-14-12-10-12--------------------------------------|
G----------------------------------------------------------|
D----------------------------------------------------------|
A----------------------------------------------------------|
E----------------------------------------------------------|
Suggest correction
comments
print report bad tab
7 comments total. Showing first comments.
0 reply
Teh Jake 51 Jan 17, 2009 06:50 PM

I can in no way see how this correlates to the mjolnir mix o_0

0 reply
Scariestkiller 31 Feb 09, 2009 11:57 PM

Honestly u shoulldnt make tabs 3 or for days into playing guitar

0 reply
Jasonbts 3,087 Jul 04, 2009 01:44 PM

It's kinda there...

guest
You may want to rate the tab now too:
select rating
Wanna post a correction for this tab? Suggest correction