Oops, an error
Loading. Please wait.

Paganini 5Th Caprice Tab

52,120 views 120 this week
4 commentsread comments
1 2 3 4 5
excellent!
x 10
add to favorites
launch autoscroll
font size
0
reset
how to read this tab
guitar tuner
Tab Pro tools
  • play this tab
  • loop segment
  • change instrument
  • show fretboard
  • metronome
Autoscroll
slow
fast
+/-
esc
set tempo
stop
Contributor
Author: Steve Vai
Tabber: Fingersofflame
Tuning: Standard EADGBe
E |------|-------------5-8-12\8--------------|---------------4-7\4-----|
B |------|-----------5----------10---1-------|---------0---5-------5---|
G |------|-------2-5---------------9---2-----|-------1---7-----------7-|
D |------|-----2-------------------------2---|---0/2-------------------|
A |------|-0/3-----------------------------3-|-2-----------------------|
E |------|-----------------------------------|-------------------------|

E |--------|-----------------5---------------|-----------------10-13\10-|
B |0-------|-------------5-8---8\5-----------|---------3----10----------|
G |--1-----|-------0---6-----------6---0-----|-------2---10-------------|
D |----2-0-|-----2---7---------------7---2---|---0/3--------------------|
A |--------|-0/4---------------------------4-|-0------------------------|
E |--------|---------------------------------|--------------------------|

E |---------------|---------------4-7\4-------------|-------------------|
B |-10----3-------|---------0---6-------6---0-------|---------------5---|
G |----10---2-----|-------1---7-----------7---1-----|-----------5-----5-|
D |-----------3-0-|---0/3-----------------------3-0-|---2---5-----7-----|
A |---------------|-2-------------------------------|-0---3---7---------|
E |---------------|---------------------------------|-------------------|

E |-5---8----12----16-|------|---------------------------------|-------|
B |---5---10----13----|------|---------------------------------|-------|
G |-------------------|------|-------------------2\0-----------|-------|
D |-------------------|------|-----2-----0-3---------3-2\0-----|-----2-|
A |-------------------|------|---3---3-2-----2-3-----------3-2-|---3---|
E |----------------0--|------|-5-------------------------------|-5-----|

E |--------------------------|---------------------------------|--------|
B |--------------------------|---------------------------------|--------|
G |------------2\0-----------|---------------------------------|--------|
D |----0-3---------3-2\0-----|-----2-------3-------3-------2---|-----3\-|
A |3-2-----2-3-----------3-2-|---4---4---5---5---2---2---3---3-|---2----|
E |--------------------------|-5-------5-------3-------3-------|-4------|

E |----------------0-------10-12-|------|-----0-------0-----5-----0-----|
B |--------------0------12-------|------|---1---1---3---3-----8-6-------|
G |------2-----1-----13----------|------|-2-------4-------5---------7-5-|
D |0-------1/2-------------------|------|-------------------------------|
A |--3\0-------------------------|------|-------------------------------|
E |------------------------------|------|-------------------------------|

E |---|-----0-------0-----5-----0-------|---------5-----------7\5-----0-|
B |-0-|---1---1---3---3-----8-6-------0-|-----5-----8-6-5---------8-6---|
G |---|-2-------4-------5---------7-5---|---6---6---------6/7-----------|
D |---|---------------------------------|-7-----------------------------|
A |---|---------------------------------|-------------------------------|
E |---|---------------------------------|-------------------------------|

E |---|---------------------------------|-------------------------------|
B |---|---0-----------------1-----------|-------------------------------|
G |-7-|-5-----0---0-2-----0---------4---|-----2-------0-----------------|
D |---|-----7---4-----3-2-----2---3---0-|---2-------0---------3-------3-|
A |---|-------------------------5-------|-3-----3-2-----2---3---0---3---|
E |---|---------------------------------|-----------------5-------4-----|

E |---|-----------|-7\5-----0-----------------------|-7-5---------------|
B |---|-----------|-----8-6-------0-----------------|-----8-6-5---------|
G |---|-----------|-----------7-5-----0-------------|-----------7-5-4---|
D |---|-----3-----|-----------------7-------0-------|-----------------7-|
A |-0-|---2---2-3-|---------------------8-7-------0-|-------------------|
E |---|-3---------|---------------------------8-7---|-------------------|

E |---------------|
B |---------------|
G |---------------|
D |-5-------------|
A |---8-7-5-------|
E |---------8-7-5-|
comments
print report bad tab
4 comments total. Showing first comments.
0 reply
captainoid wrote on April 20 2008, 05:06 pm

Ha, screw this! *burns down tab*

But seriously, nice tab man, this is gonna take some work on my part lol.

0 reply
Guitar2theface wrote on September 16 2009, 08:20 pm

Its good but I've seen more efficiently done tabs. If you can get this down though, it'll sure look like you're god damned good though, jumping all over the fretboard.

0 reply
NoamKoKo wrote on January 14 2012, 04:53 pm

I am so so studying it!
Although it's so so above my level..

I want to post or [tab]
guest
You may want to rate the tab now too:
select rating
Please do not post tabs as comments. Select "correction" instead!