Oops, an error
Loading. Please wait.

Rondo Alla Turca Bluesy Ending tab

6,092 views 9 this week
2 commentsread comments
1 2 3 4 5
x 4
add to favorites
×
Save as Personal and add changes to this tab that will be seen only by you. Learn more ›
×
You can save this tab as Personal to edit and correct it or add notes. All changes will be seen only by you. Learn more »
launch autoscroll
font size
0
reset
how to read this tab
guitar tuner
edit
Autoscroll
slow
fast
+/-
esc
set tempo
stop
Author
Difficulty
-------------------------------------------------------------------------------
                             Rondo Alla Turca Bluesy Ending - Steve Vai
-------------------------------------------------------------------------------
Tabbed by: Leonidas
Email: lionfalcon@web.de

Tuning: Standart

This was taken from the film "crossroads" where the protagonist plays the rondo at his 
class and gives it a special bluesy ending wich perfectly fits into the piece at all.
didnt find tabs around the internet so i tabbed this one by ear.
suggestions welcome ;)

e|------------5----7p5----/8-------7--------5----------|
B|--------/7-------------------10------9----------5----|
G|------------------------/8-------7--------5h6--------|
D|-----------------------------------------------------|
A|-----------------------------------------------------|
E|-----------------------------------------------------|

e|-----------------------------------------------5-----|
B|--------10-----------10------------10------5---------|
G|----9-------9---8--------8-----7-------7---5h6-------|
D|---11------11--10--------10----9-------9-------------|
A|-------------------------------------------0---------|
E|-----------------------------------------------------|

e|-8b-5-------------------------------------------5----|
B|-------5--3h4p3p1-----------------------------5------|
G|-------------------2p0--------------------5h6-----6.-|
D|-----------------------2p0------2-----------------7.-|
A|----------------------------3/4---3p0----------------|
E|--------------------------------------3/5------------|

im not quite convinced bout the last passage :P so please send suggestions to my email 
;)

            
            
Suggest correction
Creating personal tab
Creating personal tab
You can edit any tab online and save it as your Personal.

You can edit, replace or remove any tab part or add personal notes – all changes will be seen only by you.

Personal tabs can be accessed anytime from any device, even offline.
Learn more »
comments
print report bad tab
2 comments total.
0 reply
Atze-Bimbo 72 Nov 12, 2010 08:23 AM

don't know,why someone gave a bad rate...keep on bluesin'

0 reply
Jarom!r 223 Jul 04, 2011 10:05 AM

e|-8b-5-------------------------------------------5----|
B|-------5--3h4p3p1-----------------------------5------|
G|-------------------2p0---------*2*--------5h6--------|
D|-----------------------2p0------------------------7.-|
A|----------------------------3/4---3p0----------------|
E|--------------------------------------3/5--------*5.*|


i marked the notes i changed with *...*

guest
You may want to rate the tab now too:
select rating
Wanna post a correction for this tab? Suggest correction