Oops, an error
Loading. Please wait.

Sisters Tab

version 1
version 1

Whole song

Interactive

36,265 views 42 this week
6 commentsread comments
1 2 3 4 5
x 19
add to favorites
launch autoscroll
font size
0
reset
how to read this tab
guitar tuner
backing track
0:00
0:00
Autoscroll
slow
fast
+/-
esc
set tempo
stop
Gadd9      Dadd9      Bm     F          Am      Gadd9
E|---------------5-----------|---------------------------|
B|-----3-----------5-----3---|----------------5-------3--|
G|-------2---------------4---|------2-----------5-----2--|
D|-----------------------4---|--------3------------------|
A|----------3/5------0---2---|---------------------------|
E|-0h3-----------------------|--0h1------3/5-------3--3--|

   Gadd9      Dadd9      Bm              F          Am      Gadd9
                                                            |----<--------|
E|---------------5--------------------|-----------------------------------|
B|-----3-----------5-----3------3-----|----------------5----3-3-3-3-3-3---|
G|-------2---------------4------2h4p2-|------2-----------5--2-2-2-2-2-2---|
D|-----------------------4--2h4-------|--------3--------------------------|
A|----------3/5------0---2------------|-----------------------------------|
E|-0h3--------------------------------|--0h1------3/5----5--3-3-3-3-3-3---|

                       Let Ring |--|                            |-- Snap String
E|---------------5--------------0---|---------------------------|-----------|
B|-----3-----------5-----3--------0-|---------------5-------3---V-----------|
G|-------2---------------4--2/4-----|-----2-----------5-----2p0-------------|
D|-----------------------4----------|-------3-------------------2h3p2p0---0-|
A|----------3/5------0---2----------|-----------------------------------3---|
E|-0h3------------------------------|-0h1------3/5-------3------------------|

                                                    Snap String --|
E|---------------5----------------------|-------------------------V-----------|
B|-----3-----------5-----3--------------|--------------5-------3--------------|
G|-------2---------------4--4/5---2-----|------2---------5-----2--2h4p2p0---0-|
D|-----------------------4--4/5-2-2h4p2-|--------3------------------------0---|
A|----------3/5------0---2--------------|-------------------------------------|
E|-0h3----------------------------------|-0h1------3/5------3-----------------|

   Gadd9      Dadd9      Bm7        Bm11            Bm7
E|---------------5-------2-----2--|-0-----0----------2------2-|
B|-----3-----------5-----3-----3--|-2-------2--------2------2-|
G|-------2---------------2-----2--|-2-------2--------2------2-|
D|--------------------------------|---------------------------|
A|----------3/5------0---2--------|-2-------------0--2------2-|
E|-0h3----------------------------|-----------2-2-------------|

         Bm11
E|-------0-------------|
B|-------2----<7>------|
G|-------2-------<7>---|
D|---------------------|
A|-------2-------------|
E|---------------------|

   Gadd9         Bm                     F                 C
                 |-PM-|
E|----------------------5p2---------|-----3p0-------------0-----------|
B|-------3--------------3-----------|---------1-------------1-1-------|
G|-------0h2--0-------4-------2/4\2-|-------------0h2p0-------0-------|
D|-----0------------4---------------|-----------3-------------3-2-0---|
A|----------------2---------2-------|---3---------------------------3-|
E|-3--------------------------------|---------------------------------|

  Em7                            Gadd9       D        A
                                                               Tap Harmonics
E|-----0-----------------------------5-----|----------------------------------|
B|-----3/5---3-0-------------------3---3---|-----7---------5---<5.17>---------|
G|---0-----------2/(4)\2p02/4----0-------0-|-----7---------6---<5.17>---------|
D|-----------------------------------------|-0---7---------7---<6.18>-<6.18>--|
A|-----------------------------------------|----------0---------------<7.19>--|
E|-0---------------------------------------|----------------------------------|


************************************

| /   Slide up
| h   Hammer-on
| p   Pull-off
| \   Slide down
| PM  Palm mute

************************************
Suggest correction
comments
print report bad tab
6 comments total. Showing first comments.
+2 reply
zilveztre 10 May 01, 2005 08:00 PM

A great tab, Thanks man

0 reply
Markus93 151 Oct 23, 2007 03:42 PM

Get the rest plzz!!

0 reply
Dnalrafcmb3 10 Apr 12, 2008 06:20 PM

GOOD TAB BUT TAB OUT THE REST DUDE!!!!!!!

guest
You may want to rate the tab now too:
select rating
Wanna post a correction for this tab? Suggest correction