Oops, an error
Loading. Please wait.

Tender Surrender solo tab

version 1
version 1

Solo

Whole song

16,286 views 12 this week
no commentswrite comment
1 2 3 4 5
1 last vote to show rating
add to favorites
×
Save as Personal and add changes to this tab that will be seen only by you. Learn more ›
×
You can save this tab as Personal to edit and correct it or add notes. All changes will be seen only by you. Learn more »
launch autoscroll
font size
0
reset
how to read this tab
guitar tuner
backing track
0:00
0:00
edit
Autoscroll
slow
fast
+/-
esc
set tempo
stop
Author
Difficulty
This is the distorted solo only.

E---||------------------------------------------------------------------|
B---||------------------------------------------------------------------|
G---||--14^--14^--14^--14^--14^--14^--14^--14^--14^--14^--14^--14^------|
D---||------------------------------------------------------------------|
A---||------------------------------------------------------------------|
E---||------------------------------------------------------------------|

E------------------------------12---------12--------------||------------|
B-------------------------15^------15p12------12----------||------------|
G---14^p12------12/14~~~--------------------------14^p12--||--14^-------|
D-----------14--------------------------------------------||------------|
A---------------------------------------------------------||------------|
E---------------------------------------------------------||------------|

E-----------------------------------------------------------------------|
B-----------------------------------------------12-------12p10----------|
G---14--12h14~~~--12-----9h12--11^p9------9h11------11^---------12------|
D-------------------------------------12--------------------------------|
A-----------------------------------------------------------------------|
E-----------------------------------------------------------------------|

E-----------||--12------------------------------------------------------|
B-----------||----------------------------------------------------------|
G---p11p10--||------11^p9------9--11--11^--11--11^--11^--11^--11^-------|
D-----------||-------------12-------------------------------------------|
A-----------||----------------------------------------------------------|
E-----------||----------------------------------------------------------|


        switch to bridge pickup
E------------||--12--12---12---12-------------------------||------10----|
B------------||--12--12---12---12-------------------------||--12^p10----|
G---11--12^--||------12^--12^--12^--12^p9------9h12p9~~~--||------------|
D------------||----------------------------12-------------||------------|
A------------||-------------------------------------------||------------|
E------------||-------------------------------------------||------------|

E----------------------------12h15p12---------||------------------------|
B---h12h13p12p10------10h13------------13-----||--13p12p10------13------|
G-----------------12-----------------------0--||------------12----------|
D---------------------------------------------||------------------------|
A---------------------------------------------||------------------------|
E---------------------------------------------||------------------------|

E-----------------------------------------------------------------------|
B---p12p10------10---------12-----10p8p7h8h10p8p7-----------------------|
G-----------12------12--9------9-------------------9p7--9---------------|
D-----------------------------------------------------------------------|
A-----------------------------------------------------------------------|
E-----------------------------------------------------------------------|


    pinch harmonic
E--------------------------||--------15^--15^--15^--15--14--12--15------|
B--------------------------||-------------------------------------------|
G---^--9^p7----------------||-------------------------------------------|
D------------9\7--5--------||-------------------------------------------|
A--------------------7--5--||--7~~~-------------------------------------|
E--------------------------||-------------------------------------------|

E---14--12--||--14--14--------------------------------------------------|
B-----------||----------15--12------------------------------------------|
G-----------||------------------14--12------11--------------------------|
D-----------||--------------------------14------12--12------------------|
A-----------||------------------------------------------14--14--12------|
E-----------||----------------------------------------------------------|

E-------------||------------------------------------------------12------|
B-------------||--------------------------------------10h12h13----------|
G-------------||--------------------------------9h12--------------------|
D-------------||------------------------7h9h10--------------------------|
A---14--10\7--||--12/14----------7--10----------------------------------|
E-------------||---------10\7h8-----------------------------------------|

E---h15p12-----------/19--17--||--20^--19h20--17--20------20------20----|
B-----------13--12------------||----------------------17----------------|
G-----------------------------||------------------------------17--------|
D-----------------------------||----------------------------------------|
A-----------------------------||----------------------------------------|
E-----------------------------||----------------------------------------|

E------------------||---------------------------------------------------|
B-------19---------||--20^--20--19p18p17--20\15--17\12--15\10--12\8-----|
G------------------||---------------------------------------------------|
D---17-------------||---------------------------------------------------|
A-----------17~~~--||---------------------------------------------------|
E------------------||---------------------------------------------------|


    Sweeps
E---------7--10----------9--12--||--------------12--15------------------|
B------8-------------10---------||----------12------------------15------|
G---9------------11-------------||------12------------------16----------|
D-------------------------------||--14------------------14--------------|
A-------------------------------||--------------------------------------|
E-------------------------------||--------------------------------------|

E---14--17------15--18----------16--19----------17--20----------16------|
B-----------16--------------17--------------18--------------17----------|
G-----------------------18--------------19--------------18--------------|
D-----------------------------------------------------------------------|
A-----------------------------------------------------------------------|
E-----------------------------------------------------------------------|

E---19----------17--20----------21----------17--||--22^----------22-----|
B-----------18--------------19----------18------||-----------20---------|
G-------19--------------20----------19----------||-------21-------------|
D-----------------------------------------------||----------------------|
A-----------------------------------------------||----------------------|
E-----------------------------------------------||----------------------|


                                                            with wah
E---^--20--20\19--19\17--17~~~--15h17--||h19p15--15\10--10~~~-----------|
B--------------------------------------||-------------------------------|
G--------------------------------------||-------------------------------|
D--------------------------------------||----------------------9/15-----|
A--------------------------------------||-------------------------------|
E--------------------------------------||-------------------------------|

E-------13/17------17--||--17^~~~--17--15h17p15\12--15p12---------------|
B--------------15------||----------------------------------13\5h6p5-----|
G---14-----------------||-----------------------------------------------|
D----------------------||-----------------------------------------------|
A----------------------||-----------------------------------------------|
E----------------------||-----------------------------------------------|

E------------------------------------||---------------------------------|
B------------------------------------||---------------------------------|
G---7p5--5--7p5p4--------------------||--------------------t-----7------|
D------------------7p3h5h7p5p3-------||---------------7h9--15p9---------|
A-------------------------------7p3--||--2h3/6p5h6/8--------------------|
E------------------------------------||---------------------------------|

E--------------------------t---------||---------------------------------|
B--------t-----------8h10--16p10~~~--||--12--14--15--15^----------------|
G---h10--16p10p8h10------------------||---------------------------------|
D------------------------------------||---------------------------------|
A------------------------------------||---------------------------------|
E------------------------------------||-------------------0\------------|


    drop pitch to B with bar
E-----------------------------------------------------------------------|
B------------12p0h14p0h14p0h15p0h15p0/22p0h22p0h22p0--22--20p0h19p0-----|
G-----------------------------------------------------------------------|
D-----------------------------------------------------------------------|
A-----------------------------------------------------------------------|
E-----------------------------------------------------------------------|


                                     pinch harmonic
E------------------------||--14^p12--14~~~--12h14p12--t-----------------|
B---h19p0h19--17p0h17p0--||---------------------------17p12-------------|
G------------------------||----------------------------------11h12------|
D------------------------||---------------------------------------------|
A------------------------||---------------------------------------------|
E------------------------||---------------------------------------------|


                                pinch harmonipull up & down with bar
E-------------------------------||--------------------------------||----|
B---t---------------------------||--------------------------------||----|
G---14p7h9--t---------------2^--||--2-----------------------------||----|
D-----------14p7h9--t-----------||--------------------------------||----|
A-------------------14p7\5------||--------------------------------||----|
E-------------------------------||--------------------------------||----|


    I didn't tab the pull offs and hammer on's
E---15--17--15--17--15--17--15--17--19--15--15--17--15--19--15--17------|
B-----------------------------------------------------------------------|
G-----------------------------------------------------------------------|
D-----------------------------------------------------------------------|
A-----------------------------------------------------------------------|
E-----------------------------------------------------------------------|

E---15--19--15--17--15\12--15--12--15--12--14--12--15--12--17--12-------|
B-----------------------------------------------------------------------|
G-----------------------------------------------------------------------|
D-----------------------------------------------------------------------|
A-----------------------------------------------------------------------|
E-----------------------------------------------------------------------|

E---15--12--14--12--15--12--17--12--15--12--14--15--12\||--10--12-------|
B------------------------------------------------------||---------------|
G------------------------------------------------------||---------------|
D------------------------------------------------------||---------------|
A------------------------------------------------------||---------------|
E------------------------------------------------------||---------------|

E---10--14--10--12--10--14--10--12--10--14--10--12--10--14--10--12------|
B-----------------------------------------------------------------------|
G-----------------------------------------------------------------------|
D-----------------------------------------------------------------------|
A-----------------------------------------------------------------------|
E-----------------------------------------------------------------------|

E---10--14--10--12--10--14--10--7--10--7------7--10--7--10--7--7--------|
B-----------------------------------------10----------------------10----|
G-----------------------------------------------------------------------|
D-----------------------------------------------------------------------|
A-----------------------------------------------------------------------|
E-----------------------------------------------------------------------|

E----------------------------------------------------||---------3-------|
B---8--7--8--10--8--7--8--7--8\5--7--5\4--5--7--5--4\||--3h5h7-----7----|
G----------------------------------------------------||-----------------|
D----------------------------------------------------||-----------------|
A----------------------------------------------------||-----------------|
E----------------------------------------------------||-----------------|

E--------------3-----------3-------------3-------------3h7p5p3----------|
B---p5p3--5h7-----7p5p3h7-----7p5p3h5h7-----7p5p3h5h7-----------7p3-----|
G-----------------------------------------------------------------------|
D-----------------------------------------------------------------------|
A-----------------------------------------------------------------------|
E-----------------------------------------------------------------------|


                                                        t
E---------3h5h7p5p3----------3h5h7p5p3-----------3h5h7--10p7p5p3--t-----|
B---h5h7-------------7p3h5h7h3----------7p3h5h7-------------------10----|
G-----------------------------------------------------------------------|
D-----------------------------------------------------------------------|
A-----------------------------------------------------------------------|
E-----------------------------------------------------------------------|


                  whammy bar frenzy
E-------t--------------------||--20^--20^--20^--20^\---20^--||--20------|
B---p7--10p7p5---------------||-----------------20-----20---||--20------|
G---------------7//\\-/-\-/-\||-----------------------------||----------|
D----------------------------||-----------------------------||----------|
A----------------------------||-----------------------------||----------|
E----------------------------||-----------------------------||----------|

E---^--21^--22^--22^--||--15h19p15------15h19p15h19p15------15--19------|
B------21---22---22---||------------19------------------19--------------|
G---------------------||------------------------------------------------|
D---------------------||------------------------------------------------|
A---------------------||------------------------------------------------|
E---------------------||------------------------------------------------|

E---15h19p15------15h19p15h19p15------15--19\15p12------12--------------|
B-------------19------------------19----------------15------15p12h15----|
G-----------------------------------------------------------------------|
D-----------------------------------------------------------------------|
A-----------------------------------------------------------------------|
E-----------------------------------------------------------------------|

E---12--------------12---------||-------12------------------------------|
B-------15p12--15^------15p12--||--15^------15p12h15p12------12---------|
G------------------------------||------------------------15------15-----|
D------------------------------||---------------------------------------|
A------------------------------||---------------------------------------|
E------------------------------||---------------------------------------|

E-----------------------------------------------------------------------|
B------------12h14p12---------------------------------------------------|
G---p14--15------------15--12--15p12--9h12p9h12--12\9--7----------------|
D---------------------------------------------------------9--7--5-------|
A------------------------------------------------------------------7----|
E-----------------------------------------------------------------------|

E---------------||--7h10p7--------------8h12p8----------10h14p10--------|
B---------------||----------8p7-----10----------10--10------------12----|
G---------------||------------------------------------------------------|
D---5-----------||------------------------------------------------------|
A------7--7~~~--||------------------------------------------------------|
E---------------||------------------------------------------------------|

E------------10/12h15p12--------------14--17p14---------15--19p15-------|
B---p10--12---------------13--12--15-------------15/17------------------|
G-----------------------------------------------------------------------|
D-----------------------------------------------------------------------|
A-----------------------------------------------------------------------|
E-----------------------------------------------------------------------|

E---------------15\||--15p12------14h17p14------15h19p15------17h20-----|
B---17--15--17-----||---------15------------17------------19------------|
G------------------||---------------------------------------------------|
D------------------||---------------------------------------------------|
A------------------||---------------------------------------------------|
E------------------||---------------------------------------------------|

E---p17------19h22p19------19--22^--------||----------------10----------|
B--------21------------20-----------------||-----8--10--12------/-------|
G-----------------------------------------||--9-------------7-----------|
D-----------------------------------------||-----5--7---9-------/-------|
A-----------------------------------------||--7-------------------------|
E-----------------------------------22\---||----------------------------|

            
            
Suggest correction
Creating personal tab
Creating personal tab
You can edit any tab online and save it as your Personal.

You can edit, replace or remove any tab part or add personal notes – all changes will be seen only by you.

Personal tabs can be accessed anytime from any device, even offline.
Learn more »
Give kudos to tab author, rate the tab!
1 2 3 4 5
comments
print report bad tab
guest
You may want to rate the tab now too:
select rating
Wanna post a correction for this tab? Suggest correction