Oops, an error
Loading. Please wait.

The Attitude Song tab

version 2
version 2

Whole song

Interactive

5,767 views 1 this week
2 commentsread comments
1 2 3 4 5
x 4
add to favorites
×
Save as Personal and add changes to this tab that will be seen only by you. Learn more ›
×
You can save this tab as Personal to edit and correct it or add notes. All changes will be seen only by you. Learn more »
launch autoscroll
font size
0
reset
how to read this tab
guitar tuner
backing track
0:00
0:00
edit
Autoscroll
slow
fast
+/-
esc
set tempo
stop
Author
Difficulty
Gtr I (E A D G B E) - 'Untitled'
Gtr II (E A D G B E) - 'Untitled'
Gtr III (E A D G B E) - 'Untitled'

 Theme 1
  Moderate Rock Q=120
    N.C.
 7/16
  Gtr I
                          PM----|
  S  E Q      E E E  S    E E E  S
|----------||-----------|-----------|
|----------||-----------|-----------|
|---!x-----||-----------|-----------|
|---!x-----||-----------|-----------|
|------x\--||-----------|-----------|
|------x\--||-5-4-3-(0)-|-5-4-3-(0)-|


                  PM----|
   E   E   E  S   E E E  S     E   E   E  S
|---------------|-----------|---------------|
|---------------|-----------|---------------|
|---------------|-----------|---------------|
|---------------|-----------|---------------|
|---------------|-----------|---------------|
|-[5]-[4]-[3]---|-5-4-3-(0)-|-[5]-[4]-[3]---|


  PM----|                     PM----|
  E E E  S     E   E   E  S   E E E  S
|-----------|---------------|-----------|
|-----------|---------------|-----------|
|-----------|---------------|-----------|
|-----------|---------------|-----------|
|-----------|---------------|-----------|
|-5-4-3-(0)-|-[5]-[4]-[3]---|-5-4-3-(0)-|


                  PM----|
   E   E   E  S   E E E  S     E   E   E  S
|---------------|-----------|---------------|
|---------------|-----------|---------------|
|---------------|-----------|---------------|
|---------------|-----------|---------------|
|---------------|-----------|---------------|
|-[5]-[4]-[3]---|-5-4-3-(0)-|-[5]-[4]-[3]---|


                                                                     2/8
  PM----|                     PM----|                     PM----|
  E E E  S     E   E   E  S   E E E  S     E   E   E  S   E E E  S     E   E
|-----------|---------------|-----------|---------------|-----------|---------||
|-----------|---------------|-----------|---------------|-----------|---------||
|-----------|---------------|-----------|---------------|-----------|---------||
|-----------|---------------|-----------|---------------|-----------|---------||
|-----------|---------------|-----------|---------------|-----------|---------||
|-5-4-3-(0)-|-[5]-[4]-[3]---|-5-4-3-(0)-|-[5]-[4]-[3]---|-5-4-3-(0)-|-[5]-[4]-||


 Theme 2
  C           C#D   N.C.
 4/4
  Gtr II
                              T                      ~~~
  H               E E    +E   E    +E. S +E   E      H
|-------------------------------|--------------------------|
|-------------------------------|------------13b15==17r----|
|-------------------2b4==(2)-14r|=(14)p9-(9)---------------|
|-------------------------------|--------------------------|
|-------------------------------|--------------------------|
|-------------------------------|--------------------------|
|
| Gtr I
| S S S S S S S S H                 W
|-------------------------------|--------------------------|
|-5-5-5-5-5-5-6-7---------------|--------------------------|
|-5-5-5-5-5-5-6-7---------------|--------------------------|
|-5-5-5-5-5-5-6-7---------------|--------------------------|
|-3-3-3-3-3-3-4-5---------------|--------------------------|
|-------------------------------|--------------------------|


  C           C#D   N.C.
                     \0.5_____\1.5___
  H               E  Q       +E
|-----------------------------------|
|-----------------------------------|
|-------------------<5>-----(<5>)---|
|-----------------------------------|
|-----------------------------------|
|-----------------------------------|
|
| S S S S S S S S H
|-----------------------------------|
|-5-5-5-5-5-5-6-7-------------------|
|-5-5-5-5-5-5-6-7-------------------|
|-5-5-5-5-5-5-6-7-------------------|
|-3-3-3-3-3-3-4-5-------------------|
|-----------------------------------|


    \1.5____/0.5____\2.5____/      /2__________/
   +E      +S      +S      +Q     +S    +E    +S    +Q
|---------------------------------------------------------|
|---------------------------------------------------------|
|-(<5>)---(<5>)---(<5>)---(<5>)--(<5>)-(<5>)-(<5>)-(<5>)--|
|---------------------------------------------------------|
|---------------------------------------------------------|
|---------------------------------------------------------|
|
|   W
|---------------------------------------------------------|
|---------------------------------------------------------|
|---------------------------------------------------------|
|---------------------------------------------------------|
|---------------------------------------------------------|
|---------------------------------------------------------|


  C                   C#D   N.C.
                \7
   +Q          +Q         E   E  S  S  S  S    S  S  S  S  S S  S  S  S  S  E  S S S S
|-------------------------------14-------12-|-------10-------8-------10-10s=8-10-------|
|---------------------------/15----15s13----|-13s12----12s10---10s12-12-12s10-12-------|
|-(<5>)-------(<5>)-------------------------|------------------------------------------|
|-------------------------------------------|------------------------------------------|
|-------------------------------------------|------------------------------------5-5-6-|
|-------------------------------------------|------------------------------------------|
|
|   S   S S S   S   S S S H                    W
|-------------------------------------------|------------------------------------------|
|---5---5-5-5---5---5-6-7-------------------|------------------------------------------|
|---5---5-5-5---5---5-6-7-------------------|------------------------------------------|
|---5---5-5-5---5---5-6-7-------------------|------------------------------------------|
|---3---3-3-3---3---3-4-5-------------------|------------------------------------------|
|-------------------------------------------|------------------------------------------|


  Gtr II
  S E. S  S S S +H       E E E E e E Q
|----------------------|-7-5-4-5s7-4s2--||
|----------------------|-9-7-5-7s9-5s3--||
|----------------------|----------------||
|----------------------|----------------||
|-7----7--7---7-(7)----|----------------||
|---0-------0----------|----------------||
|                        E E E E e E Q
|
| Gtr III
| Q    E.     S +H       E E E E e E Q
|----------------------|----------------||
|----------------------|----------------||
|-------------9-(9)----|-9-7-6-7s9-6s4--||
|----------------------|----------------||
|----------------------|----------------||
|----------------------|----------------||
|
| Gtr I
| Q    E.     S +H       E E E E e E Q
|----------------------|----------------||
|----------------------|----------------||
|----------------------|----------------||
|-------------9-(9)----|-9-7-6-7s9-6s4--||
|----------------------|----------------||
|----------------------|----------------||


 Theme 1-B
  N.C.
 7/16
  Gtr II
  Q..         Q..          E   E   E   S    Q..            E  E  E  S
|-----------|-----------|-----------------|-------------|-24-23-22-----|
|-----------|-----------|-----------------|-------------|--------------|
|-----------|-----------|--x\--x\--x\-----|-------------|--------------|
|-----------|-----------|--x\--x\--x\-----|-------------|--------------|
|-----------|-----------|-----------------|-------------|--------------|
|-----------|-----------|-----------------|-------------|--------------|
|
| Gtr I
|             PM----|                       PM------|
| E   E E S   E   E E S    E   E   E   S    E   E E  S     E  E  E  S
|-----------|-----------|-----------------|-------------|--------------|
|-----------|-----------|-----------------|-------------|--------------|
|-----------|-----------|-----------------|-------------|--------------|
|-----------|-----------|-----------------|-------------|--------------|
|-----------|-----------|-----------------|-------------|--------------|
|-5---4-3---|-5---4-3---|-[5]-[4]-[3]-(0)-|-5---4-3-(0)-|--5--4--3-(0)-|


                                                   2/8
  S E    S E  S     Q..               Q..            E   E
|----------------|------------------|-------------|---------||
|----------------|------------------|-------------|---------||
|---x\-----------|------------------|-------------|--x\--x\-||
|---x\-----------|------------------|-------------|--x\--x\-||
|----------------|------------------|-------------|---------||
|--------4-------|------------------|-------------|---------||
|
|                                     PM------|
| E    E   E  S     E    E   E   S    E   E E  S     E   E
|----------------|------------------|-------------|---------||
|----------------|------------------|-------------|---------||
|----------------|------------------|-------------|---------||
|----------------|------------------|-------------|---------||
|----------------|------------------|-------------|---------||
|-5----4---3-(0)-|-[5]--[4]-[3]-(0)-|-5---4-3-(0)-|-[5]-[4]-||


 Theme 2-B
  C           C#D   N.C.
 4/4
  Gtr II
  H               E   E  S  a  E  S    Q      S  E.     +S   +S       +E   +Q
|-----------------------13-------17-|--------15---------------------------------|
|-------------------/15----15s13----|-15b17-----15b18==(15)r(15)b18==(15)r(15)--|
|-----------------------------------|-------------------------------------------|
|-----------------------------------|-------------------------------------------|
|-----------------------------------|-------------------------------------------|
|-----------------------------------|-------------------------------------------|
|
| Gtr III
| H               E   E  S  a  E  S    Q      S  E.     +S   +S       +E   +Q
|-----------------------------------|-------------------------------------------|
|-----------------------13-------17-|--------15---------------------------------|
|-------------------/14----14s12----|-14b16-----14b17==(14)r(14)b17==(14)r(14)--|
|-----------------------------------|-------------------------------------------|
|-----------------------------------|-------------------------------------------|
|-----------------------------------|-------------------------------------------|
|
| Gtr I
| S S S S S S S S H                    W
|-----------------------------------|-------------------------------------------|
|-5-5-5-5-5-5-6-7-------------------|-------------------------------------------|
|-5-5-5-5-5-5-6-7-------------------|-------------------------------------------|
|-5-5-5-5-5-5-6-7-------------------|-------------------------------------------|
|-3-3-3-3-3-3-4-5-------------------|-------------------------------------------|
|-----------------------------------|-------------------------------------------|


  C           C#D NN.C.
                  PM--------------------|
                  |-3-| |-3-| |-3-| |-3-|
  H               S S S S S S S S S S S S
|------------------------------------------|
|------------------------------------------|
|-----------------------------9-9-9-7-7-7--|
|-----------------------7-7-7--------------|
|-----------------5-5-5--------------------|
|------------------------------------------|
|
|                 PM------------------|
|                 |-3-| |-3-| |-3-| |-3-|
| H               S S S S S S S S S S S S
|------------------------------------------|
|------------------------------------------|
|------------------------------------------|
|-----------------------------9-9-9-7-7-7--|
|-----------------------5-5-5--------------|
|-----------------5-5-5--------------------|
|
| S S S S S S S S H
|------------------------------------------|
|-5-5-5-5-5-5-6-7--------------------------|
|-5-5-5-5-5-5-6-7--------------------------|
|-5-5-5-5-5-5-6-7--------------------------|
|-3-3-3-3-3-3-4-5--------------------------|
|------------------------------------------|


   PM------------|
   |--3--|  |--3--|  |--3--|        |--3--|
   S  S  S  S  S  S  S  S  S  S  S  S  S  S  S  S      +Q
|-------------------------------------------------------------|
|----------------------------10----10-10-10----13b15==(13)r\--|
|-12-12-12-11-11-11-12-12-12----12----------12----------------|
|-------------------------------------------------------------|
|-------------------------------------------------------------|
|-------------------------------------------------------------|
|
|  PM------------|
|  |--3--|  |--3--|  |--3--|        |--3--|
|  S  S  S  S  S  S  S  S  S  S  S  S  S  S  S  S      +Q
|-------------------------------------------------------------|
|-------------------------------------------------------------|
|----------------------------11----11-11-11----12b14==(12)r\--|
|-10-10-10--9--9--9-10-10-10----12----------12----------------|
|-------------------------------------------------------------|
|-------------------------------------------------------------|
|
|  W
|-------------------------------------------------------------|
|-------------------------------------------------------------|
|-------------------------------------------------------------|
|-------------------------------------------------------------|
|-------------------------------------------------------------|
|-------------------------------------------------------------|


  C           C#D   N.C.
                     /4_________________\7    |
  H               E  Q.       +H       +Q.    E
|--------------------------|---------------------|
|--------------------------|---------------------|
|-------------------<5>----|-(<5>)----(<5>)------|
|--------------------------|---------------------|
|--------------------------|------------------x--|
|--------------------------|------------------x--|
|
|                    /4_________________\7    |
| H               E  Q.       +H       +Q.    E
|--------------------------|---------------------|
|--------------------------|---------------------|
|-------------------<7>----|-(<7>)----(<7>)------|
|--------------------------|---------------------|
|--------------------------|------------------x--|
|--------------------------|------------------x--|
|
| S S S S S S S S H            W
|--------------------------|---------------------|
|-5-5-5-5-5-5-6-7----------|---------------------|
|-5-5-5-5-5-5-6-7----------|---------------------|
|-5-5-5-5-5-5-6-7----------|---------------------|
|-3-3-3-3-3-3-4-5----------|---------------------|
|--------------------------|---------------------|


  D           D#E   N.C.
                     \0.5/
  H               E  E      E  E
|-------------------19s====17s16-|
|--------------------------------|
|--------------------------------|
|--------------------------------|
|--------------------------------|
|--------------------------------|
|
|                    \0.5/
| H               E  E      E  E
|--------------------------------|
|-------------------12s====10s=9-|
|--------------------------------|
|--------------------9s=====7s=6-|
|--------------------------------|
|--------------------------------|
| H               E  E      E  E
|
| Gtr I
| S S S S S S S S E  E      Q
|--------------------------------|
|-7-7-7-7-7-7-8-9----------------|
|-7-7-7-7-7-7-8-9----------------|
|-7-7-7-7-7-7-8-9----------------|
|-5-5-5-5-5-5-6-7----------------|
|-----------------0--------------|


                                       2/4
        \0.5/             \0.5/          \0.5/
   +E   E      E  E  +E   E      E  E    E      E  Q
|-(16)-17s====16s14-(14)-16s====14s12-|-14s====12s10--||
|-------------------------------------|---------------||
|-------------------------------------|---------------||
|-------------------------------------|---------------||
|-------------------------------------|---------------||
|-------------------------------------|---------------||
|
|       \0.5/             \0.5/          \0.5/
|  +E   E      E  E  +E   E      E  E    E      E  Q
|-------------------------------------|---------------||
|--(9)-10s=====9s=7--(7)--9s=====7s=5-|--7s=====5s=3--||
|-------------------------------------|---------------||
|--(6)--7s=====6s=4--(4)--6s=====4s=2-|--4s=====2p=0--||
|-------------------------------------|---------------||
|-------------------------------------|---------------||
|  +E   E      E  E  +E   E      E  E    E      E  Q
|
|   W                                    H
|-------------------------------------|---------------||
|-------------------------------------|---------------||
|-------------------------------------|---------------||
|-------------------------------------|---------------||
|-------------------------------------|---------------||
|-------------------------------------|---------------||


 Theme 1-C
  N.C.
 7/16
   E     E     E     S     E     E     E     S
|-----------------------|-----------------------|
|-10-----9-----8--------|-10-----9-----8--------|
|-12b14-11b13-10b12-----|-12b14-11b13-10b12-----|
|-----------------------|-----------------------|
|-----------------------|-----------------------|
|-----------------------|-----------------------|
|
|                          PM---------------|
|  E     E     E     S     E     E     E     S
|-----------------------|-----------------------|
|-----------------------|-----------------------|
|-----------------------|-----------------------|
|-----------------------|-----------------------|
|-----------------------|-----------------------|
|--5-----4-----3----(0)-|--5-----4-----3----(0)-|


   E     E     E     S     E     E     E     S     E     E     E     S
|-----------------------|-----------------------|-----------------------|
|-10-----9-----8--------|-10-----9-----8--------|-10-----9-----8--------|
|-12b14-11b13-10b12-----|-12b14-11b13-10b12-----|-12b14-11b13-10b12-----|
|-----------------------|-----------------------|-----------------------|
|-----------------------|-----------------------|-----------------------|
|-----------------------|-----------------------|-----------------------|
|
|                    PM---------------------|
|  E     E     E     S     E     E     E     S     E     E     E     S
|-----------------------|-----------------------|-----------------------|
|-----------------------|-----------------------|-----------------------|
|-----------------------|-----------------------|-----------------------|
|-----------------------|-----------------------|-----------------------|
|-----------------------|-----------------------|-----------------------|
|-[5]---[4]---[3]---(0)-|--5-----4-----3----(0)-|-[5]---[4]---[3]---(0)-|


   E     E     E     S     E     E     E     S
|-----------------------|-----------------------|
|-10-----9-----8--------|-10-----9-----8--------|
|-12b14-11b13-10b12-----|-12b14-11b13-10b12-----|
|-----------------------|-----------------------|
|-----------------------|-----------------------|
|-----------------------|-----------------------|
|
|  PM---------------|                        PM--
|  E     E     E     S     E     E     E     S
|-----------------------|-----------------------|
|-----------------------|-----------------------|
|-----------------------|-----------------------|
|-----------------------|-----------------------|
|-----------------------|-----------------------|
|--5-----4-----3----(0)-|-[5]---[4]---[3]---(0)-|


                         2/8
   E     E     E     S     E     E
|-----------------------|-------------||
|-10-----9-----8--------|-10-----9----||
|-12b14-11b13-10b12-----|-12b14-11b13-||
|-----------------------|-------------||
|-----------------------|-------------||
|-----------------------|-------------||
|
|-------------------|
|  E     E     E     S     E     E
|-----------------------|-------------||
|-----------------------|-------------||
|-----------------------|-------------||
|-----------------------|-------------||
|-----------------------|-------------||
|--5-----4-----3----(0)-|-[5]---[4]---||


 Theme 3
  N.C.  E      N.C.
 4/4
  Gtr II
  Q        E    E      +Q    +Q      E. S +S  S a E +Q   a E E
|--------------21b24==(21)r=(21)--|----------------------------|
|---------------------------------|-----7-(7)------------------|
|--------------18b21==(18)r=(18)--|-------------6s7-(7)--6s7-6-|
|---------------------------------|-/4--------4-4s5-(5)--4s5-4-|
|---------------------------------|----------------------------|
|---------------------------------|----------------------------|
| Q        E    E      +Q    +Q
|
| Gtr III
| Q        E    E      +Q    +Q      E. S  E      E +Q     E E
|---------------------------------|----------------------------|
|--------------20b24==(20)r=(20)--|----------------------------|
|---------------------------------|----------------------------|
|---------------------------------|-----4----------------------|
|---------------------------------|---------------5-(5)----5-4-|
|---------------------------------|--2------------3-(3)----3-2-|
|
| Gtr I
| S S S S +E    E       H            W
|---------------------------------|----------------------------|
|-------9-(9)\--------------------|----------------------------|
|-------9-(9)\--------------------|----------------------------|
|-------9-(9)\--------------------|----------------------------|
|-------7-(7)\--------------------|----------------------------|
|-0-0-0---------------------------|----------------------------|


        E        N.C.
                 \2/ \2/ \2/  \2/   \7
                 |---3---|
  H              E   E   E    E    +E
|--------------------------------------|
|--------------------------------------|
|----------------0---4---7---12---(12)-|
|--------------------------------------|
|--------------------------------------|
|--------------------------------------|
|
|                \2/ \2/ \2/  \2/   \7
|                |---3---|
| H              E   E   E    E    +E
|--------------------------------------|
|--------------------------------------|
|--------------------------------------|
|----------------0---4---7---12---(12)-|
|--------------------------------------|
|--------------------------------------|
|
| S S S S +E   E H
|--------------------------------------|
|-------9-(9)\-------------------------|
|-------9-(9)\-------------------------|
|-------9-(9)\-------------------------|
|-------7-(7)\-------------------------|
|-0-0-0--------------------------------|


                G5         F#5
   E. S +S  S a E +Q   a E E   H              Q  Q
|----------------------------|----------------------|
|-----7-(7)------------------|----------------x--x--|
|-------------6s7-(7)--6s7-6-|----------------------|
|-/4--------4-4s5-(5)--4s5-4-|----------------------|
|----------------------------|----------------------|
|----------------------------|----------------------|
|
|  E. S  E      E +Q     E E   W
|----------------------------|----------------------|
|----------------------------|----------------------|
|----------------------------|----------------------|
|-----4----------------------|----------------------|
|---------------5-(5)----5-4-|----------------------|
|--2------------3-(3)----3-2-|----------------------|
|
|  W                           S S S S +E   E H
|----------------------------|----------------------|
|----------------------------|-------9-(9)\---------|
|----------------------------|-------9-(9)\---------|
|----------------------------|-------9-(9)\---------|
|----------------------------|-------7-(7)\---------|
|----------------------------|-0-0-0----------------|


                G5         F#5
   E. S +S  S a E +Q   a E E
|-----------------------------||
|-----7-(7)-------------------||
|-------------6s7-(7)--6s7-6--||
|-/4--------4-4s5-(5)--4s5-4--||
|-----------------------------||
|-----------------------------||
|
|  E. S  E      E +Q     E E
|-----------------------------||
|-----------------------------||
|-----------------------------||
|-----4-----------------------||
|---------------5-(5)----5-4--||
|--2------------3-(3)----3-2--||
|
|  W
|-----------------------------||
|-----------------------------||
|-----------------------------||
|-----------------------------||
|-----------------------------||
|-----------------------------||


  N.C.
   S  S  S  S  +S   S  S  S  S  S  S  S  +S   S  S  S
|-24-24-24-24-(24)-24-24-24-24-24-24-24-(24)-24-24-24-|
|-----------------------------------------------------|
|-----------------------------------------------------|
|-----------------------------------------------------|
|-----------------------------------------------------|
|-----------------------------------------------------|
|
|  S  S  S  S  +S   S  S  S  S  S  S  S  +S   S  S  S
|-----------------------------------------------------|
|-24-24-24-24-(24)-24-24-24-24-24-24-24-(24)-24-24-24-|
|-----------------------------------------------------|
|-----------------------------------------------------|
|-----------------------------------------------------|
|-----------------------------------------------------|
|
|  S  S  S  S  +S   S  S  S  S  S  S  S  +S   S  S  S
|----------24-(24)-------------------22-(22)----------|
|-----------------------------------------------------|
|-21-21-21---------21-21-21-19-19-19---------19-19-19-|
|-----------------------------------------------------|
|-----------------------------------------------------|
|-----------------------------------------------------|


                                                               \1/        \1/        \1/          \1/
   S  S  S  S  +S   S  S  S  S  S  S  S  +S   S  S  S    E  S +S   +E  S +S   +E  S +S   +E   S  +S
|-24-24-24-24-(24)-24-24-24-24-24-24-24-(24)-24-24-24-|-21\--------------------------------------------|
|-----------------------------------------------------|---------------------------9-(9)--(9)-12-(12)---|
|-----------------------------------------------------|----------------6-(6)--(6)----------------------|
|-----------------------------------------------------|-----4-(4)--(4)---------------------------------|
|-----------------------------------------------------|------------------------------------------------|
|-----------------------------------------------------|------------------------------------------------|
|
|                                                              \1/        \1/        \1/          \1/
|  S  S  S  S  +S   S  S  S  S  S  S  S  +S   S  S  S    E  S +S   +E  S +S   +E  S +S   +E   S  +S
|-----------------------------------------------------|------------------------------------------------|
|-24-24-24-24-(24)-24-24-24-24-24-24-24-(24)-24-24-24-|-19\--------------------------------------------|
|-----------------------------------------------------|---------------------------6-(6)--(6)-13-(13)---|
|-----------------------------------------------------|----------------4-(4)--(4)----------------------|
|-----------------------------------------------------|-----2-(2)--(2)---------------------------------|
|-----------------------------------------------------|------------------------------------------------|
|
|                                                                                                 \1/
|  S  S  S  S  +S   S  S  S  S  S  S  S  +S   S  S  S    E  E       Q          Q          E   S  +S
|----------21-(21)-------------------20-(20)----------|------------------------------------------------|
|-----------------------------------------------------|------------------------------------------------|
|-18-18-18---------18-18-18-17-17-17---------17-17-17-|-16\--------------------------------------------|
|-----------------------------------------------------|--------------------------------------14-(14)---|
|-----------------------------------------------------|------------------------------------------------|
|-----------------------------------------------------|------------------------------------------------|


            \1/           \1/           \1/
   +E   S  +S    +E   S  +S    +E   S  +S    +E   S  S    S  S  S  S  S  S  S  S  S  S  S  S  S  S  S  S
|------------------------------------------------------|-------------------------------------------------|
|-(12)-14-(14)--(14)-16-(16)--(16)-17-(17)--(17)-16-16-|-17-17-16-16-------------------------------------|
|------------------------------------------------------|-------------18-18-16-16-------------------16-16-|
|------------------------------------------------------|-------------------------19-19-16-16-19-19-------|
|------------------------------------------------------|-------------------------------------------------|
|------------------------------------------------------|-------------------------------------------------|
|
|           \1/           \1/           \1/
|  +E   S  +S    +E   S  +S    +E   S  +S    +E   S  S    S  S  S  S  S  S  S  S  S  S  S  S  S  S  S  S
|------------------------------------------------------|-------------------------------------------------|
|------------------------------------------------------|-------------------------------------------------|
|-(13)-14-(14)--(14)-16-(16)--(16)-18-(18)--(18)-16-16-|-18-18-16-16-------------------------------------|
|------------------------------------------------------|-------------19-19-18-18-------------------18-18-|
|------------------------------------------------------|-------------------------21-21-18-18-19-19-------|
|------------------------------------------------------|-------------------------------------------------|
|
|           \1/           \1/           \1/
|  +E   S  +S    +E   S  +S    +E   S  +S    +E   S  S    S  S  S  S  S  S  S  S  S  S  S  S  S  S  S  S
|------------------------------------------------------|-------------------------------------------------|
|------------------------------------------------------|-------------------------------------------------|
|------------------------------------------------------|-------------------------------------------------|
|-(14)-16-(16)--(16)-18-(18)--(18)-19-(19)--(19)-18-18-|-19-19-18-18-------------------------------------|
|------------------------------------------------------|-------------21-21-18-18-------------------18-18-|
|------------------------------------------------------|-------------------------21-21-19-19-21-21-------|


   |-----5-----|  |-----5-----|
   S  S  S  S  S  S  S  S  S  S  E     S  a      +S   +Q
|----------16----------------16-------19--------------------||
|-16-17-19----19-17-16-17-19----19b21----19pb21r(19)-(19)---||
|-----------------------------------------------------------||
|-----------------------------------------------------------||
|-----------------------------------------------------------||
|-----------------------------------------------------------||
|
|  |-----5-----|  |-----5-----|
|  S  S  S  S  S  S  S  S  S  S  E     S  a      +S   +Q
|-----------------------------------------------------------||
|----------16----------------16-------19--------------------||
|----16-18----18-16----16-18----18b20----18pb20r(18)-(18)---||
|-19----------------19--------------------------------------||
|-----------------------------------------------------------||
|-----------------------------------------------------------||
|
|  |-----5-----|  |-----5-----|
|  S  S  S  S  S  S  S  S  S  S  E     S  a      +S   +Q
|-----------------------------------------------------------||
|-----------------------------------------------------------||
|-------------------------------------19--------------------||
|----18-19-21-19-18----18-19-21-19b21----19pb21r(19)-(19)---||
|-21----------------21--------------------------------------||
|-----------------------------------------------------------||


 Theme 1-D
  N.C.
 7/16
  Gtr II
   E     E     E    S    E     E     E    S
|---------------------|---------------------|
|-17----16----15------|-17----16----15------|
|-19b21-18b20-17b19---|-19b21-18b20-17b19---|
|---------------------|---------------------|
|---------------------|---------------------|
|---------------------|---------------------|
|
| Gtr I
|                        PM---------|
|  E     E     E    S    E     E     E    S
|---------------------|---------------------|
|---------------------|---------------------|
|---------------------|---------------------|
|---------------------|---------------------|
|---------------------|---------------------|
|--5-----4-----3------|--5-----4-----3------|


   E     E     E    S    E     E     E    S    E     E     E    S
|---------------------|---------------------|---------------------|
|-17----16----15------|-10-----9-----8------|-17----16----15------|
|-19b21-18b20-17b19---|-12b14-11b13-10b12---|-19b21-18b20-17b19---|
|---------------------|---------------------|---------------------|
|---------------------|---------------------|---------------------|
|---------------------|---------------------|---------------------|
|
|                        PM---------|
|  E     E     E    S    E     E     E    S    E     E     E    S
|---------------------|---------------------|---------------------|
|---------------------|---------------------|---------------------|
|---------------------|---------------------|---------------------|
|---------------------|---------------------|---------------------|
|---------------------|---------------------|---------------------|
|-[5]---[4]---[3]-----|--5-----4-----3------|-[5]---[4]---[3]-----|


   E     E     E    S    E     E     E    S
|---------------------|---------------------|
|-10-----9-----8------|-17----16----15------|
|-12b14-11b13-10b12---|-19b21-18b20-17b19---|
|---------------------|---------------------|
|---------------------|---------------------|
|---------------------|---------------------|
|
|  PM---------|
|  E     E     E    S    E     E     E    S
|---------------------|---------------------|
|---------------------|---------------------|
|---------------------|---------------------|
|---------------------|---------------------|
|---------------------|---------------------|
|--5-----4-----3------|-[5]---[4]---[3]-----|


                       2/8           4/4
   E     E     E    S    E     E       Q     H.        W
|---------------------|-------------|----------------|------||
|-10-----9-----8------|-17----16----|-17-------------|------||
|-12b14-11b13-10b12---|-19b21-18b20-|-19b21----------|------||
|---------------------|-------------|----------------|------||
|---------------------|-------------|----------------|------||
|---------------------|-------------|----------------|------||
|
|  PM---------|
|  E     E     E    S    E     E       Q     H.        W
|---------------------|-------------|----------------|------||
|---------------------|-------------|----------------|------||
|---------------------|-------------|----------------|------||
|---------------------|-------------|----------------|------||
|---------------------|-------------|----------------|------||
|--5-----4-----3------|-[5]---[4]---|--0-------------|------||


 Guitar Solo
  N.C.
  Gtr II
                           ~~~~
   Q      S  S  S  S      +H       a a  a      +Q..   +S   S  S  S  S  S  S     S  S
|--------12----------------------|---------------------------------------------12----|
|-----------12-15-15b17==(15)----|-----17b21==(17)r==(17)-15----17-15s12----------12-|
|-14b16--------------------------|---x-----------------------16----------14b16-------|
|--------------------------------|-x-------------------------------------------------|
|--------------------------------|---------------------------------------------------|
|--------------------------------|---------------------------------------------------|


                          \0.5_______/
   S  S  S  S  S  E.   E. a     +S  +Q
|-----------------------------------------|
|-14s12p10----10--------------------------|
|----------12----12b14--------------------|
|-----------------------------------------|
|-------------------------0-----(0)-(0)---|
|-----------------------------------------|


  \1/
      PM--------|
                               |-3-| |-3-|
  E   S S S S S S +S  S E Q    S S S S S S a E. S +S  E    +S  +S  S E
|----------------------------|-----------------------------------------|
|----------------------------|-5p3p0-5p3p0-5s7-------------------------|
|----------------------------|------------------6-(6)s2b6==(2)r(2)p0---|
|-5--------------------------|---------------------------------------2-|
|-----7-6-5------------------|-----------------------------------------|
|-----------7-6-5-(5)-5-3-0--|-----------------------------------------|


       \1/          \1/          \1/          \1/
   S  +S   +S   S  +S   +S   S  +S   +S   S  +S   +S  S S S S
|---------------------------------------------------------------|
|--------------[3]-(3)--(3)-[5]-(5)--(5)-[7]-(7)--(7)-8p7-------|
|-[4]-(4)--(4)--------------------------------------------9p7---|
|---------------------------------------------------------------|
|---------------------------------------------------------------|
|---------------------------------------------------------------|


                                                              |---3----|
   S      +S   +S   S      +S   +S   S      +S   +S   S      +S   +S   S      +Q
|------------------------------------------------------------------------------------|
|-10b12==(10)r(10)s12b14==(12)r(12)s15b17==(15)r(15)s17b19==(17)r(17)s20b22==(20)r\--|
|------------------------------------------------------------------------------------|
|------------------------------------------------------------------------------------|
|------------------------------------------------------------------------------------|
|------------------------------------------------------------------------------------|


                    ~~~~~~~                                                 ~~~~~~~~
   S  S  S  S    E  E  +E.  a      +S   +S   S   E    E. S E  a  E  +S   a  E.  +Q
|-12-----------------------------------------------|---------------------------------|
|----15-12-----------------------------------------|---------12s14-(14)-14s11--(11)--|
|----------14b16---15-(15)-14b16==(14)r(14)p12-----|---------------------------------|
|----------------------------------------------h14-|-11s12----9s11-(11)-11s=8---(8)--|
|--------------------------------------------------|---------------------------------|
|--------------------------------------------------|--9s10---------------------------|


                                                   2/4
    ~~~~
            |---------------13:8----------------|    |3-|  |3-|
   +Q   Q   S  S  S  S  S  S  S  S  S  S  S  S  S    E  S  E  S  +Q
|-------------19----19-18-17-16-------------------|-16----18-15-(15)--|
|-(11)--------------------------19-18-17-16-15----|-------------------|
|----------16----16----------------------------16-|----15-------------|
|--(8)--------------------------------------------|-------------------|
|-------------------------------------------------|-------------------|
|-------------------------------------------------|-------------------|


 4/4                                       2/4
                             \1/
   E  T T  S  E  T T  S  E  +E    a  E  E   E E  Q
|-17-17------17-17------17-(17)--17s18p14-|----------|
|-------x----------x----------------------|----------|
|---------15---------15-------------------|----------|
|-----------------------------------------|-----[2]--|
|-----------------------------------------|----------|
|-----------------------------------------|-3-0------|


 4/4
   PM----------------------------------------------------------------------
   |--3--|  |--3--|  |--3--|  |--3--|  |--3--|  |--3--|  |--3--|  |--3--|
   S  S  S  S  S  S  S  S  S  S  S  S  S  S  S  S  S  S  S  S  S  S  S  S
|-------------------------------------------------------------------------|
|-------------------------------------------------------------------------|
|-------------------------------------------------------11----------------|
|-------------------11----------------11-------11-12-14----14-12-11-12-14-|
|----------10-12-14----14-12-10-12-14----12-14----------------------------|
|-10-12-14----------------------------------------------------------------|


 ----------------|
   |--3--|  |--3--|               |--3--|  |--3--|  |--3--|  |--3--|  |--3--|
   S  S  S  S  S  S  T  T  T   T  S  S  S  S  S  S  S  S  S  S  S  S  S  S  S
|--------------------------------------------------------------------------------|
|-------------------12-14-12-----12----------15----14-13-12----------------------|
|-11-------11-12-14----------h14----14-13-12----12----------15-14-13-12----------|
|----12-14--------------------------------------------------------------14-13----|
|--------------------------------------------------------------------------------|
|--------------------------------------------------------------------------------|


   |--3--|  |--3--|  |--3--|  |--3--|  |--3--|  |--3--|  |--3--|  |--3--|
   S  S  S  S  S  S  S  S  S  S  S  S  S  S  S  S  S  S  S  S  S  S  S  S
|-------------------------------------------------------------------------|
|-------14-12-------------15-13-------------16-14-------------17-15-------|
|----13-------13-------14-------14-------15-------15-------16-------16----|
|-12-------------14-13-------------15-14-------------16-15-------------17-|
|-------------------------------------------------------------------------|
|-------------------------------------------------------------------------|


                                                2/4
   |--3--|  |--3--|  |--3--|  |--3--|             |--3--|  |--3--|  |--3--|
   S  S  S  S  S  S  S  S  S  S  S  S  Q   Q      S  S  S  S  S  S  S  S  S  E
|-------------------15-------15-17-19-17\------|-17-----------------------------||
|----------15-17-19----17-19---------------x\--|----15----15--------------------||
|-14-16-18---------------------------------x\--|-------14----14----14-----------||
|------------------------------------------x\--|----------------12----12----12--||
|----------------------------------------------|-------------------------10-----||
|----------------------------------------------|--------------------------------||


 4/4
  Gtr II
    \1/     \1/     \1/                        \1/
                        PM--------|
                        |-3-| |-3-|                      |-3-| |-3-|
  E.S   +E  E   +E  E   S S S S S S   E. S +E  E   +E  E S S S S S S
|-----------------------------------|--------------------------------|
|-----------------------------------|--------------------------------|
|-9s8---(8)s7---(7)-4---------------|--------------------7-7-7-8-8-8-|
|-----------------------7-7-7-5-5-5-|----5-(5)-7---(7)-9-------------|
|-----------------------------------|-7------------------------------|
|-----------------------------------|--------------------------------|
|
| Gtr III
|   \1/     \1/     \1/                        \1/
|                       PM--------|
|                       |-3-| |-3-|                      |-3-| |-3-|
| E.S   +E  E   +E  E   S S S S S S   E. S +E  E   +E  E S S S S S S
|-----------------------------------|--------------------------------|
|-----------------------------------|--------------------------------|
|-----------------------------------|--------------------------------|
|-----------------------------------|--------------------------------|
|-----------------------5-5-5-6-6-6-|-7--6-(6)-5---(5)---------------|
|-0-3---(3)-5---(5)s7---------------|------------------7-5-5-5-3-3-3-|


                             3/4                                4/4
  Gtr II
  \7
                                                                  ~~
  Q.    E      +Q.    +E       S  S    E  S  S    E  S  S    E    W
|------21b22==(21)---(21)r\-|-16---------16---------16---------|-15----|
|---------------------------|----19b21------19b21------19b21---|-------|
|-9-------------------------|----------------------------------|-------|
|---------------------------|----------------------------------|-------|
|---------------------------|----------------------------------|-------|
|---------------------------|----------------------------------|-------|
|
| Gtr III
| \7
|                                                                 ~~
| Q.    E      +Q.    +E       S  S    E  S  S    E  S  S    E    W
|---------------------------|----------------------------------|-------|
|------22b24==(22)---(22)r\-|-17---------17---------17---------|-16----|
|---------------------------|----19b21------19b21------19b21---|-------|
|---------------------------|----------------------------------|-------|
|---------------------------|----------------------------------|-------|
|-0-------------------------|----------------------------------|-------|
|
| Gtr I
|                                                                 ~~
| Q.    E      +Q.    +E       S  S    E  S  S    E  S  S    E    W
|---------------------------|----------------------------------|-------|
|---------------------------|----------------------------------|-------|
|------19b21==(19)---(19)r\-|-16---------16---------16---------|-15----|
|---------------------------|----19b21------19b21------19b21---|-------|
|---------------------------|----------------------------------|-------|
|---------------------------|----------------------------------|-------|


                                                                \7
                                             ~~~~~~~~~~~~~~~~~~~~~~
                                             |--3--|  |--3--|
   E.  S  +E   E  +S       +S   +E   E  E    Q  Q  Q  Q  Q  Q   W
|-15--11-(11)-14-(14)b15==(14)r(14)-10-11-|-12-11-10-11--9-10-|-8-----||
|-----------------------------------------|-------------------|-------||
|-----------------------------------------|-------------------|-------||
|-----------------------------------------|-------------------|-------||
|-----------------------------------------|-------------------|-------||
|-----------------------------------------|-------------------|-------||
|
|                                                               \7
|                                            ~~~~~~~~~~~~~~~~~~~~~~
|                                            |--3--|  |--3--|
|  E.  S  +E   E  +S       +S   +E   E  E    Q  Q  Q  Q  Q  Q   W
|-----------------------------------------|-------------------|-------||
|-16--12-(12)-15-(15)b16==(15)r(15)-11-12-|-13-12-11-12-10-11-|-9-----||
|-----------------------------------------|-------------------|-------||
|-----------------------------------------|-------------------|-------||
|-----------------------------------------|-------------------|-------||
|-----------------------------------------|-------------------|-------||
|
|                                                               \7
|                                            ~~~~~~~~~~~~~~~~~~~~~~
|                                            |--3--|  |--3--|
|  E.  S  +E   E  +S       +S   +E   E  E    Q  Q  Q  Q  Q  Q   W
|-----------------------------------------|-------------------|-------||
|-----------------------------------------|-------------------|-------||
|-15--11-(11)-14-(14)b15==(14)r(14)-10-11-|-12-11-10-11--9-10-|-8-----||
|-----------------------------------------|-------------------|-------||
|-----------------------------------------|-------------------|-------||
|-----------------------------------------|-------------------|-------||


 Theme 1-E
  N.C.
 7/16
  Gtr II
   E     E     E      +S      E     E     E      +S
|--------------------------|--------------------------|
|-12----12----12-----(12)--|-12----12----12-----(12)--|
|-14b16-14b16-14b16==(14)r-|-14b16-14b16-14b16==(14)r-|
|--------------------------|--------------------------|
|--------------------------|--------------------------|
|--------------------------|--------------------------|
|
| Gtr I
|                             PM----------------|
|  E     E     E       S      E     E     E       S
|--------------------------|--------------------------|
|--------------------------|--------------------------|
|--------------------------|--------------------------|
|--------------------------|--------------------------|
|--------------------------|--------------------------|
|--5-----4-----3------(0)--|--5-----4-----3------(0)--|


   E     E     E      +S      E     E     E      +S      E     E     E     S
|--------------------------|--------------------------|-----------------------|
|-12----12----12-----(12)--|-12----12----12-----(12)--|-12----14----14--------|
|-14b16-14b16-14b16==(14)r-|-14b16-14b16-14b16==(14)r-|-14b16-16b18-16b18-----|
|--------------------------|--------------------------|-----------------------|
|--------------------------|--------------------------|-----------------------|
|--------------------------|--------------------------|-----------------------|
|
|                             PM---------|
|  E     E     E       S      E     E     E       S      E     E     E     S
|--------------------------|--------------------------|-----------------------|
|--------------------------|--------------------------|-----------------------|
|--------------------------|--------------------------|-----------------------|
|--------------------------|--------------------------|-----------------------|
|--------------------------|--------------------------|-----------------------|
|-[5]---[4]---[3]-----(0)--|--5-----4-----3------(0)--|-[5]---[4]---[3]---(0)-|


   E     E     E     S     E     E     E     S
|-----------------------|-----------------------|
|-12----14----14--------|-12----14----14--------|
|-14b16-16b18-16b18-----|-14b16-16b18-16b18-----|
|-----------------------|-----------------------|
|-----------------------|-----------------------|
|-----------------------|-----------------------|
|
|  PM---------------|
|  E     E     E     S     E     E     E     S
|-----------------------|-----------------------|
|-----------------------|-----------------------|
|-----------------------|-----------------------|
|-----------------------|-----------------------|
|-----------------------|-----------------------|
|--5-----4-----3----(0)-|-[5]---[4]---[3]---(0)-|


   E     E     E     S     E     E     E     S     E     E     E     S
|-----------------------|-----------------------|-----------------------|
|-17----14----14--------|-12----14----17--------|-14----14----14--------|
|-19b21-16b18-16b18-----|-14b16-16b18-19b21-----|-16b18-16b18-16b18-----|
|-----------------------|-----------------------|-----------------------|
|-----------------------|-----------------------|-----------------------|
|-----------------------|-----------------------|-----------------------|
|
|  PM---------------|                              PM---------------|
|  E     E     E     S     E     E     E     S     E     E     E     S
|-----------------------|-----------------------|-----------------------|
|-----------------------|-----------------------|-----------------------|
|-----------------------|-----------------------|-----------------------|
|-----------------------|-----------------------|-----------------------|
|-----------------------|-----------------------|-----------------------|
|--5-----4-----3----(0)-|-[5]---[4]---[3]---(0)-|--5-----4-----3----(0)-|


   E     E     E     S     E     E     E     S     E     E     E     S
|-----------------------|-----------------------|-----------------------|
|-12----14----17--------|-17----17----17--------|-12----14----17--------|
|-14b16-16b18-19b21-----|-19b21-19b21-19b21-----|-14b16-16b18-19b21-----|
|-----------------------|-----------------------|-----------------------|
|-----------------------|-----------------------|-----------------------|
|-----------------------|-----------------------|-----------------------|
|
|                          PM---------------|
|  E     E     E     S     E     E     E     S     E     E     E     S
|-----------------------|-----------------------|-----------------------|
|-----------------------|-----------------------|-----------------------|
|-----------------------|-----------------------|-----------------------|
|-----------------------|-----------------------|-----------------------|
|-----------------------|-----------------------|-----------------------|
|-[5]---[4]---[3]---(0)-|--5-----4-----3----(0)-|-[5]---[4]---[3]---(0)-|


   E     E     E     S     E     E     E      +S      E     E     E      +S
|-----------------------|-------------17-----(17)--|-17----17----17-----(17)--||
|-12----17----14--------|-14----17----20b22==(20)r-|-20b22-20b22-20b22==(20)r-||
|-14b16-19b21-16b18-----|-16b18-19b21--------------|--------------------------||
|-----------------------|--------------------------|--------------------------||
|-----------------------|--------------------------|--------------------------||
|-----------------------|--------------------------|--------------------------||
|
|  PM---------------|                                 PM----------------|
|  E     E     E     S     E     E     E       S      E     E     E       S
|-----------------------|--------------------------|--------------------------||
|-----------------------|--------------------------|--------------------------||
|-----------------------|--------------------------|--------------------------||
|-----------------------|--------------------------|--------------------------||
|-----------------------|--------------------------|--------------------------||
|--5-----4-----3----(0)-|-[5]---[4]---[3]-----(0)--|--5-----4-----3------(0)--||


   S     S  S     S  S     S  S     S     S  S  S     S  S     S
|--------------------------------|--------------------------------|
|-------12-------12-------12-12--|-------14-14-------14-------14--|
|-14b16----14b16----14b16--------|-16b18-------16b18----16b18-----|
|--------------------------------|--------------------------------|
|--------------------------------|--------------------------------|
|--------------------------------|--------------------------------|
|
|                                   PM------------------------|
|  E        E        E        S     E        E        E        S
|--------------------------------|--------------------------------|
|--------------------------------|--------------------------------|
|--------------------------------|--------------------------------|
|--------------------------------|--------------------------------|
|--------------------------------|--------------------------------|
|-[5]------[4]------[3]------(0)-|--5--------4--------3-------(0)-|


   S     S  S     S  S     S  S    S     S  S  S     S  S     S     S     S  S     S  S     S  S
|-------------------------------|-------17-17-------17-------17--|-------17-------17-------17-17-|
|-------17-------17-------17-17-|-20b22-------20b22----20b22-----|-20b22----20b22----20b22-------|
|-19b21----19b21----19b21-------|--------------------------------|-------------------------------|
|-------------------------------|--------------------------------|-------------------------------|
|-------------------------------|--------------------------------|-------------------------------|
|-------------------------------|--------------------------------|-------------------------------|
|
|                                  PM------------------------|
|  E        E        E        S    E        E        E        S     E        E        E        S
|-------------------------------|--------------------------------|-------------------------------|
|-------------------------------|--------------------------------|-------------------------------|
|-------------------------------|--------------------------------|-------------------------------|
|-------------------------------|--------------------------------|-------------------------------|
|-------------------------------|--------------------------------|-------------------------------|
|-[5]------[4]------[3]-------0-|--5--------4--------3-------(0)-|-[5]------[4]------[3]-------0-|


   S     S  S  S     S  S     S     S     S  S     S  S     S  S
|-------17-17-------17-------17--|-------17-------17-------17-17--|
|-20b22-------20b22----20b22-----|-20b22----20b22----20b22--------|
|--------------------------------|--------------------------------|
|--------------------------------|--------------------------------|
|--------------------------------|--------------------------------|
|--------------------------------|--------------------------------|
|
|  PM------------------------|
|  E        E        E        S     E        E        E        S
|--------------------------------|--------------------------------|
|--------------------------------|--------------------------------|
|--------------------------------|--------------------------------|
|--------------------------------|--------------------------------|
|--------------------------------|--------------------------------|
|--5--------4--------3-------(0)-|-[5]------[4]------[3]------(0)-|


                                                     C                       C#D
                                  3/4
   S     S  S  S     S  S     S     S     S  S     S  S    S  S    S  S    S S  S
|-------17-17-------17-------17--|-------17-------17-------8-------8-------8-9-10-||
|-20b22-------20b22----20b22-----|-20b22----20b22----11b13---11b13---11b13--------||
|--------------------------------|------------------------------------------------||
|--------------------------------|------------------------------------------------||
|--------------------------------|------------------------------------------------||
|--------------------------------|------------------------------------------------||
|
|  PM------------------------|
|  E        E        E        S     E        E        S    S  S    S  S    S S  S
|--------------------------------|------------------------------------------------||
|--------------------------------|--------------------5----5--5----5--5----5-6--7-||
|--------------------------------|--------------------5----5--5----5--5----5-6--7-||
|--------------------------------|--------------------5----5--5----5--5----5-6--7-||
|--------------------------------|--------------------3----3--3----3--3----3-4--5-||
|--5--------4--------3-------(0)-|-[5]------[4]-----------------------------------||


 Theme 2-C
  N.C.                               C                       C#D
 4/4
   \7__/     |           \2.5/  \7
   a   H     Q   +Q      E     +Q.    S    S  S    S  S    S S  S
|----------------------|-------------------8-------8-------8-9-10-|
|----------------------|-------------11b13---11b13---11b13--------|
|----------------------|-0-----(0)--------------------------------|
|----------------------|------------------------------------------|
|----------------------|------------------------------------------|
|-(0)--0s===13--(13)\--|------------------------------------------|
|
|      W                 H            S    S  S    S  S    S S  S
|----------------------|------------------------------------------|
|----------------------|--------------5----5--5----5--5----5-6--7-|
|----------------------|--------------5----5--5----5--5----5-6--7-|
|----------------------|--------------5----5--5----5--5----5-6--7-|
|----------------------|--------------3----3--3----3--3----3-4--5-|
|----------------------|------------------------------------------|


  N.C.
   |------6-------|  |------6-------|  |------6-------|  |------6-------|
   S  S  S  S  S  S  S  S  S  S  S  S  S  S  S  S  S  S  S  S  S  S  S  S
|-22-15-------15-19-22-15-------15-19-22-15-------15-19-22-15-------15-19-|
|-------15-17-------------15-17-------------15-17-------------15-17-------|
|-------------------------------------------------------------------------|
|-------------------------------------------------------------------------|
|-------------------------------------------------------------------------|
|-------------------------------------------------------------------------|
|
|  |------6-------|  |------6-------|  |------6-------|  |------6-------|
|  S  S  S  S  S  S  S  S  S  S  S  S  S  S  S  S  S  S  S  S  S  S  S  S
|-------------------------------------------------------------------------|
|-22-15-------15-19-22-15-------15-19-22-15-------15-19-22-15-------15-19-|
|-------14-16-------------14-16-------------14-16-------------14-16-------|
|-------------------------------------------------------------------------|
|-------------------------------------------------------------------------|
|-------------------------------------------------------------------------|


                                      C                       C#D
   |------6-------|  |------6-------|
   S  S  S  S  S  S  S  S  S  S  S  S  S    S  S    S  S    S S  S
|-22-15-------15-19-22-20-19----------------8-------8-------8-9-10---|
|-------15-17----------------22-20-19-11b13---11b13---11b13----------|
|--------------------------------------------------------------------|
|--------------------------------------------------------------------|
|--------------------------------------------------------------------|
|--------------------------------------------------------------------|
|
|  |------6-------|  |------6-------|
|  S  S  S  S  S  S  S  S  S  S  S  S  S    S  S    S  S    S S  S
|--------------------------------------------------------------------|
|-22-15-------15-19-22-20-19-----------5----5--5----5--5----5-6--7---|
|-------14-16----------------21-19-17--5----5--5----5--5----5-6--7---|
|--------------------------------------5----5--5----5--5----5-6--7---|
|--------------------------------------3----3--3----3--3----3-4--5---|
|--------------------------------------------------------------------|


  N.C.
   |-----5-----|  |---3----|  |--3--|
   S  S  S  S  S  E     E  E  E  E  E  S     +S   E
|----19----19----------17----22----19---------------|
|----------------20b22----19------------------------|
|-17----17----19----------------------19b20r(19)p17-|
|-------------------------------17------------------|
|---------------------------------------------------|
|---------------------------------------------------|
|
|  |-----5-----|  |---3----|  |--3--|
|  S  S  S  S  S  E     E  E  E  E  E  S     +S   E
|----15----15----------14----19----15---------------|
|----------------17b19----15------------------------|
|-14----14----14----------------------16b17r(16)p14-|
|-------------------------------14------------------|
|---------------------------------------------------|
|---------------------------------------------------|


                        D                          D# E
   |-----5-----|
   S  S  S  S  S  Q      S     S  S     S  S     S  S  S
|----19----16-----------------10-------10-------10-11-12-|
|----------------18b20--13b15----13b15----13b15----------|
|-17----16----15-----------------------------------------|
|--------------------------------------------------------|
|--------------------------------------------------------|
|--------------------------------------------------------|
|
|  |-----5-----|
|  S  S  S  S  S  Q      S     S  S     S  S     S  S  S
|----15----14--------------------------------------------|
|----------------16b18---7-----7--7-----7--7-----7--8--9-|
|-14----13----12---------7-----7--7-----7--7-----7--8--9-|
|------------------------7-----7--7-----7--7-----7--8--9-|
|------------------------5-----5--5-----5--5-----5--6--7-|
|--------------------------------------------------------|


  N.C.
   S  S  S  S  S  S  S      +S    S  S  S  S    S  S  E
|----------12-16-12--------------12----12---------12-------|
|-------15----------15b17==(15)r----15----15b17------15b17-|
|-13-14----------------------------------------------------|
|----------------------------------------------------------|
|----------------------------------------------------------|
|----------------------------------------------------------|
|
|  S  S  S  S  S  S  S      +S    S  S  S  S    S  S  E
|----------------------------------------------------------|
|----------------------------------------------------------|
|-----------9-13-------------------------------------------|
|-------12--------9---------------9-----9----------9-------|
|-11-12-------------12b14==(12)r----12----12b14------12b14-|
|----------------------------------------------------------|


                                                   ~~~~~
   S  S  S  S  S  S  S      +S    S  S  S  S      +Q
|----------12-16-12--------------12----12---------------|
|-------15----------15b17==(15)r----15----15b17==(15)r--|
|-13-14-------------------------------------------------|
|-------------------------------------------------------|
|-------------------------------------------------------|
|-------------------------------------------------------|
|
|                                                  ~~~~~
|  S  S  S  S  S  S  S      +S    S  S  S  S      +Q
|-------------------------------------------------------|
|-------------------------------------------------------|
|-----------9-13----------------------------------------|
|-------12--------9---------------9-----9---------------|
|-11-12-------------12b14==(12)r----12----12b14==(12)r--|
|-------------------------------------------------------|


  Gtr II
   S  S  S  S  S  S  S      +S    S  S  S  S    S  S  E
|----------12-16-12--------------12----12---------12-------|
|-------15----------15b17==(15)r----15----15b17------15b17-|
|-13-14----------------------------------------------------|
|----------------------------------------------------------|
|----------------------------------------------------------|
|----------------------------------------------------------|
|
| Gtr III
|  S  S  S  S  S  S  S      +S    S  S  S  S    S  S  E
|----------16-21-16--------------16----16---------16-------|
|-------17----------19b21==(19)r----19----19b21------19b21-|
|-18-19----------------------------------------------------|
|----------------------------------------------------------|
|----------------------------------------------------------|
|----------------------------------------------------------|
|
| Gtr I
|  S  S  S  S  S  S  S      +S    S  S  S  S    S  S  E
|----------------------------------------------------------|
|----------------------------------------------------------|
|-----------9-13-------------------------------------------|
|-------12--------9---------------9-----9----------9-------|
|-11-12-------------12b14==(12)r----12----12b14------12b14-|
|----------------------------------------------------------|


   S  S  S  S  S  S  S  S  S  S  S  S      +E   E     W
|----------12-16-12----12-16-12-15-17b19==(17)r-----|---------------*|
|-------15----------15------------------------------|---------------*|
|-13-14---------------------------------------------|---------------*|
|---------------------------------------------------|---------------*|
|---------------------------------------------------|---------------*|
|---------------------------------------------------|---------------*|
|
|  S  S  S  S  S  S  S  S  S  S  S  S      +E   E     W
|----------16-21-16----16-21-16----22b24==(22)r-----|---------------*|
|-------17----------19----------19------------------|---------------*|
|-18-19---------------------------------------------|---------------*|
|---------------------------------------------------|---------------*|
|---------------------------------------------------|---------------*|
|---------------------------------------------------|---------------*|
|
|  S  S  S  S  S  S  S  S  S  S  S  S      +E   S S   E S S Q  H
|---------------------------------------------------|---------------*|
|---------------------------------------------------|---------------*|
|-----------9-13--9-----9-13--9----14b16==(14)r-----|---------------*|
|-------12----------12----------12------------------|---------------*|
|-11-12---------------------------------------------|---------------*|
|-----------------------------------------------5-4-|-3-4-5---------*|



Duration Legend
---------------
W - whole; H - half; Q - quarter; E - 8th; S - 16th; T - 32nd; X - 64th; a - acciaccatura
+ - note tied to previous; . - note dotted; .. - note double dotted
Uncapitalized letters represent notes that are staccato (1/2 duration)
Irregular groupings are notated above the duration line
Duration letters will always appear directly above the note/fret number it represents the
duration for.  Duration letters with no fret number below them represent rests.  Multi-
bar rests are notated in the form Wxn, where n is the number of bars to rest for.  Low
melody durations appear below the staff

Tablature Legend
----------------
 h   - hammer-on
 p   - pull-off
 b   - bend
 pb  - pre-bend
 r   - bend release (if no number after the r, then release immediately)
 /\  - slide into or out of (from/to "nowhere")
 s   - legato slide
 S   - shift slide
 - natural harmonic
[n]  - artificial harmonic
n(n) - tapped harmonic
 ~   - vibrato
 tr  - trill
 T   - tap
 TP  - trem. picking
 PM  - palm muting
\n/  - tremolo bar dip; n = amount to dip
 \n  - tremolo bar down
 n/  - tremolo bar up
/n\  - tremolo bar inverted dip
 =   - hold bend; also acts as connecting device for hammers/pulls
 <> - volume swell (louder/softer)
 x   - on rhythm slash represents muted slash
 o   - on rhythm slash represents single note slash

Misc Legend
-----------
 |  - bar
||  - double bar
||o - repeat start
o|| - repeat end
*|  - double bar (ending)
 :  - bar (freetime)
 $  - Segno
 &  - Coda
Tempo markers -  = BPM(8/16=s8/s16), where s8 = swing 8ths, s16 = swing 16ths


            
            
Suggest correction
Creating personal tab
Creating personal tab
You can edit any tab online and save it as your Personal.

You can edit, replace or remove any tab part or add personal notes – all changes will be seen only by you.

Personal tabs can be accessed anytime from any device, even offline.
Learn more »
comments
print report bad tab
2 comments total.
+1 reply
Maitinin 19,543 Feb 26, 2007 03:55 AM

well, it's quite hard to read, but I suppose it's 100% correct, don't think you've made this yourself, but nevermind, 5 stars!

0 reply
2guitargod4 411 Jan 12, 2010 02:47 PM

well done although its kinda hard 2 read, 4 stars for me

guest
You may want to rate the tab now too:
select rating
Wanna post a correction for this tab? Suggest correction