Oops, an error
Loading. Please wait.

Are You Ready Tab

65 views 1 this week
no commentswrite comment
1 2 3 4 5
3 more votes to show rating
add to favorites
launch autoscroll
font size
0
reset
how to read this tab
guitar tuner
Autoscroll
slow
fast
+/-
esc
set tempo
stop
Help us to improve Ultimate-Guitar.com Take our survey!
×
are you ready (piano instrumental)


steve wiebe


album: king of song 


TRANSCRIBED BY RUDY GUZMAN


guzman_84@hotmail.com




                                               
e:-2----2---2---2----2-----2-------------------------------------------|
B:-3----3---3---3----3-----3---------3----3----3--------3---3---3------|
G:-2----2---2---2----2-----2---------0----0----0--------0---0---0------|
D:-0--0---0---0----0----0------------0----0----0--------0---0---0----0-|
A:----------------------------------------------------0---0---0----0---|
E:----------------------------0h2-3-----3----3---0h2-------------------|

e:-2----2---2---2----2-----2-------------------------------9--9--9--9--|
B:-3----3---3---3----3-----3---------3----3----3-----------10-10-10-10-|
G:-2----2---2---2----2-----2---------0----0----0-----------9--9--9--9--|
D:-0--0---0---0----0----0------------0----0----0--------0--------------|
A:----------------------------------------------------0----------------|
E:----------------------------0h2-3-----3----3---0h2-------------------|


e:-5-----5---5-5----5----5----5----5--|
B:-6-----6---6-6----6----6----6----6--|
G:-5-----5---5-5----5----5----5----5--|
D:----3----3------3----3----3----3----|
A:------------------------------------|
E:------------------------------------|

e:-5--3-----3---5-------3---------------3-------3---------------3------|
B:-6--6--6--6---6-------6------6-6------6-------6------6-6------6------|
G:-5--5--3--5---5-------5------3-3-3-3--5-------5------3-3-3-3--5------|
D:-3--3--3--3---3--3-3--3--3-3-3-3-3-3--3--3-3--3--3-3-3-3-3-3--3--3-3-|
A:---------------------------------------------------------------------|
E:---------------------------------------------------------------------|

e:-------------5-------------7-8-8--8-8-6--5-5-----5-5---5-----5--|
B:-6------6--8---8--6/8-8-10---9-9--9-9-7----6-----6-6---6-----6--|
G:-5------5--5------5/7-7-7------------------5-----5-5---5-----5--|
D:-0-0-0--0---------0------------------------0-0-0-----0---0-0----|
A:----------------------------------------------------------------|
E:----------------------------------------------------------------|

e:-2--2--|
B:-3--3--|
G:-2--2--|
D:-0--0--|
A:-------|
E:-------|

e:-2----2---2---2----2-----2-------------------------------------------|
B:-3----3---3---3----3-----3---------3----3----3--------3---3---3------|
G:-2----2---2---2----2-----2---------0----0----0--------0---0---0------|
D:-0--0---0---0----0----0------------0----0----0--------0---0---0----0-|
A:----------------------------------------------------0---0---0----0---|
E:----------------------------0h2-3-----3----3---0h2-------------------|

e:-2----2---2---2----2-----2-------------------------------9--9--9--9--|
B:-3----3---3---3----3-----3---------3----3----3-----------10-10-10-10-|
G:-2----2---2---2----2-----2---------0----0----0-----------9--9--9--9--|
D:-0--0---0---0----0----0------------0----0----0--------0--------------|
A:----------------------------------------------------0----------------|
E:----------------------------0h2-3-----3----3---0h2-------------------|

e:-5-----5---5-5----5----5----5----5--|
B:-6-----6---6-6----6----6----6----6--|
G:-5-----5---5-5----5----5----5----5--|
D:----3----3------3----3----3----3----|
A:------------------------------------|
E:------------------------------------|

e:-5--3-----3---5-------3---------------3-------3---------------3------|
B:-6--6--6--6---6-------6------6-6------6-------6------6-6------6------|
G:-5--5--3--5---5-------5------3-3-3-3--5-------5------3-3-3-3--5------|
D:-3--3--3--3---3--3-3--3--3-3-3-3-3-3--3--3-3--3--3-3-3-3-3-3--3--3-3-|
A:---------------------------------------------------------------------|
E:---------------------------------------------------------------------|

e:-------------5-------------7-8-8--8-8-6--5-5-----5-5---5-----5--|
B:-6------6--8---8--6/8-8-10---9-9--9-9-7----6-----6-6---6-----6--|
G:-5------5--5------5/7-7-7------------------5-----5-5---5-----5--|
D:-0-0-0--0---------0------------------------0-0-0-----0---0-0----|
A:----------------------------------------------------------------|
E:----------------------------------------------------------------|

                                                  x2
e:-2----2-------------2-------------2-2--------2-2--|
B:-3----3---5-5-5-3-2-3---------3-5-3-3-5-3-2--3-3--|
G:-2----2---2-2-2-2-2-2---------2-2-----2-2-2--2-2--|
D:-0--0---0-0-0-0-0-0-0------------------------0-0--|
A:--------------------------------------------------|
E:-----------------------0h2-3----------------------|

e:-14-----14-14-----14-----14-15-14------------12-14-12---12-14-15--17-15-14----14----|
B:-15-----15-15-----15---------------15-----15-------------------------------15----15-|
G:-14-----14-14-----14-------------------14-------------------------------------------|
D:----0-0-------0-0----0-0---------------0--------------0-----------0--------------0--|
A:------------------------------------------------------------------------------------|
E:------------------------------------------------------------------------------------|

e:-------15-14-----------12----------|
B:----15-------15--15-15-----15-15---|
G:-14--------------------------------|
D:-------------0---0--0------0--0----|
A:-----------------------------------|
E:-----------------------------------|

e:------0---2-|
B:-3-3--3---3-|
G:-2-2--2---2-|
D:-0-0------0-|
A:------------|
E:------------|



http://www.stevewiebe.com/                                       website

http://itunes.apple.com/us/album/the-king-of-song/id345233982    album

http://twitter.com/stevewiebedk                                  twitter



hillo son mex

10/03/10
Suggest correction
Give kudos to tab author, rate the tab!
1 2 3 4 5
comments
print report bad tab
guest
You may want to rate the tab now too:
select rating
Wanna post a correction for this tab? Suggest correction