Oops, an error
Loading. Please wait.

Beatles Medley Chords

31 views 1 this week
no commentswrite comment
1 2 3 4 5
3 more votes to show rating
add to favorites
launch autoscroll
font size
0
reset
transpose
0
reset
simplify chords
display chords
guitar tuner
Autoscroll
slow
fast
+/-
esc
set tempo
stop
Help us to improve Ultimate-Guitar.com Take our survey!
×
Author
STEVEN TYLER - BEATLES MEDLEY

THIS IS CURRENTLY BEING PLAYED LIVE ON HIS SOLO TOUR. CHECK IT OUT ON YOUTUBE.

[VERSE]

G
You tell lies thinking I can't see

You can't cry cause you're laughing at me

[CHORUS]

    C
I'm down (I'm really down)
    G
I'm down (Down on the ground)
    C
I'm down (I'm really down)
D7          G
How can you laugh  when you know I'm down?
D7          G
How can you laugh  when you know I'm down?

[VERSE]

G                               
Man buys ring woman throws it away

Same old thing happen every day

[CHORUS]

    C
I'm down (I'm really down)
    G
I'm down (Down on the ground)
    C
I'm down (I'm really down)
D7          G
How can you laugh  when you know I'm down?
D7          G
How can you laugh  when you know I'm down?
 
[SOLO]

E--------------------------------------------------------|
B--------------------------------------------------------|
G--------------------------------------------------------|
D--------3-----------------------3----3--5B--5B--5B--3---|
A---3--5---5--1--1---1--3----3--5---5------------------3-|
E-3----------------3------5------------------------------|


E------------------------------------------------------------------------|
B------------------------------------------------------------------------|
G------3---3--5B-5B-5B-3-----3---5B---5B--5B--5B--5B--5B--5B--5B--5--3---|
D-3--5---5--------------5--5---5---------------------------------------5-|
A------------------------------------------------------------------------|
E------------------------------------------------------------------------|

E-----------------------------|
B-----------------------------|
G-----------------------------|
D-----------3-----------------|
A---1s-3-3s-5---5-3-1---------|
E-3-------------------3-------|

[VERSE]
 
G                               
We're all alone and there's nobody else

Still she'll moan "Keep your hands to yourself!"

[CHORUS]

    C
I'm down (I'm really down)
    G
I'm down (Down on the ground)
    C
I'm down (I'm really down)
D7          G
How can you laugh  when you know I'm down?
D7          G
How can you laugh
G7       C                  D#7
When you told me you didn't need me anymore
G
Well you know I nearly broke down and cried
         A7
When you told me you didn't need me anymore
         D7            D#7           D7   D
Well you know I nearly fell down and died___

[VERSE]

D  G                D
Oh darling please believe me
Em                C
I'll never make it alone 
Am7                    D7
Believe me when I tell you
Am7        D7        G
I'll never do you no harm

G   C   G   G#7   G7

[VERSE]

Dm
Here come old flat top, He come grooving up slowly,
Dm
He got Joo Joo eyeball, He one holy roller 
        A7              
He got  Hair down to his knee;  
G7
Got to be a joker, he just do what he please.

[Instrumental]         

[Verse]

Dm                      
He wear no shoe shine, he got toe jam football
Dm
He got monkey finger, he shoot co-ca cola
        A7 
He say, "I know you, you know me."  
G7
One thing I can tell you is you got to be free

[Chorus]

     Bm              G   A
Come Together, Right now, over me

[Instrumental]
               
[Verse]

Dm
He bag production, He got wal-rus gumboot
Dm
He got O-no sideboard, He one spinal cracker
       A7
He got feet down below his knee
G7
Hold you in his armchair, you can feel his disease 

[Chorus]

     Bm              G    A
Come together, right now,  over me

[Verse]

Dm
He roller coaster, he got early warning
Dm
He got muddy water, He one Mo-jo filter
        A7
He say, " One and one and one is three."
G7
Got to be good looking 'cause he so hard to see 

[Chorus]

     Bm              G    A
Come together, right now,  over me
Suggest correction
Give kudos to tab author, rate the tab!
1 2 3 4 5
comments
print report bad tab
guest
You may want to rate the tab now too:
select rating
Wanna post a correction for this tab? Suggest correction