Oops, an error
Loading. Please wait.

Hand Cannot Erase tab

version 2
version 2

Whole song

Interactive

1,933 views 12 this week
no commentswrite comment
1 2 3 4 5
1 last vote to show rating
add to favorites
×
Save as Personal and add changes to this tab that will be seen only by you. Learn more ›
×
You can save this tab as Personal to edit and correct it or add notes. All changes will be seen only by you. Learn more »
launch autoscroll
font size
0
reset
how to read this tab
guitar tuner
edit
Autoscroll
slow
fast
+/-
esc
set tempo
stop
Author
Difficulty
-------------------------------------------------------------------------------
                             Hand Cannot Erase - Steven Wilson
-------------------------------------------------------------------------------

Tabbed by: Bobbits

Tuning EADGBe


Guitar 1 

e|------------0-0------------0----------0----0------------0----0-----0----0----0----0---0------|
B|----17------------14----14---14----14---14---14-16-12-----12\---10---10---10---10--10--10----|
G|-14----14-16---13----13---------13--------------------13-------------------------------------|
D|---------------------------------------------------------------------------------------------|
A|---------------------------------------------------------------------------------------------|    
E|---------------------------------------------------------------------------------------------|     }x3

e|---------------------------0------0--0--------------0-----0----0-----0----0----0----0--------|
B|----17------17------14---14-14--14-14-14--16--12------12\---10---10----10---10---10---10-----|
G|-14---14-16---16-13----13-----13-----------------13------------------------------------------|
D|---------------------------------------------------------------------------------------------|
A|---------------------------------------------------------------------------------------------|
E|---------------------------------------------------------------------------------------------|


e|-------7--7----------9--9-----------9--9----------4--4--------4--4---------4--4-------|
B|-----9--9--9------10--10--10-----10--10--10-----5--5--5-----4--4--4------4--4--4------|
G|---9------------9--------------9--------------4-----------4------------4--------------|  x2
D|--------------------------------------------------------------------------------------|
A|--------------------------------------------------------------------------------------|
E|--------------------------------------------------------------------------------------|




Guitar 1 

e|---------------------------------------------------------------------------------|
B|---------------------------------------------------------------------------------|
G|-----8-9-8---------8-9-8--------8-9-8--------8-9-8--------8-9-8--------8-9-8-----| x2
D|-7-9-------9---6-9-------9---6-9------9---6-9------9---7-9------9---7-9------9---|
A|---------------------------------------------------------------------------------|
E|---------------------------------------------------------------------------------|

Guitar 2 

e|------------------------------------------------------------------------|
B|------------------------------------------------------------------------|
G|--------------6-6-6-6-6-6-6-6-6-6-6---4-4-4-4-4-------------------------|
D|-7-7-7-7-7----6-6-6-6-6-6-6-6-6-6-6---4-4-4-4-4---7-7-7-7-7-7-7-7-7-7-7-|   x2
A|-7-7-7-7-7----4-4-4-4-4-4-4-4-4-4-4-0-2-2-2-2-2---7-7-7-7-7-7-7-7-7-7-7-|
E|-5-5-5-5-5--0-----------------------------------0-5-5-5-5-5-5-5-5-5-5-5-|
PM .......................................................................



Guitar 1 

e|----4---------------4---------------------------------------------------|
B|---4-4------5-7-5-----5-4-------------4-5-4--------4-5-4--7-5-4---------|
G|--4---4---6---------------4---------4------4-----4--------------6-4-----| x2
D|-6-------7--------7-------------------------------------------------7---|
A|------------------------------------------------------------------------|
E|----------------------------------0-----------4-------------------------|

Guitar 2 

e|------------------------------------------------------------------|
B|------------------------------------------------------------------|
G|------------------9--9------------------------------9--9----------|
D|-6--6---7~--------9--9---6~--------6--6---7~--------9--9---6~-----|
A|-6--6---7~--------7--7---6~--------6--6---7~--------7--7---6~-----|
E|-4--4---5~--------0--0---4~--------4--4---5~--------0--0---4~-----|



Guitar 1 

e|------------0-0------------0----------0----0------------0----0-----0----0----0----0---0------|
B|----17------------14----14---14----14---14---14-16-12-----12\---10---10---10---10--10--10----|
G|-14----14-16---13----13---------13--------------------13-------------------------------------|
D|---------------------------------------------------------------------------------------------|
A|---------------------------------------------------------------------------------------------|    
E|---------------------------------------------------------------------------------------------|     

e|---------------------------0------0--0--------------0-----0----0-----0----0----0----0--------|
B|----17------17------14---14-14--14-14-14--16--12------12\---10---10----10---10---10---10-----|
G|-14---14-16---16-13----13-----13-----------------13------------------------------------------|
D|---------------------------------------------------------------------------------------------|
A|---------------------------------------------------------------------------------------------|
E|---------------------------------------------------------------------------------------------|

Guitar 2

e|------------------------------------------------------------------------|
B|------------------------------------------------------------------------|
G|--------------6-6-6-6-6-6-6-6-6-6-6---4-4-4-4-4-------------------------|
D|-7-7-7-7-7----6-6-6-6-6-6-6-6-6-6-6---4-4-4-4-4---7-7-7-7-7-7-7-7-7-7-7-|   x2
A|-7-7-7-7-7----4-4-4-4-4-4-4-4-4-4-4-0-2-2-2-2-2---7-7-7-7-7-7-7-7-7-7-7-|
E|-5-5-5-5-5--0-----------------------------------0-5-5-5-5-5-5-5-5-5-5-5-|
PM .......................................................................




Guitar 1 

e|-------7--7----------9--9-----------9--9----------4--4--------4--4---------4--4-------|
B|-----9--9--9------10--10--10-----10--10--10-----5--5--5-----4--4--4------4--4--4------|
G|---9------------9--------------9--------------4-----------4------------4--------------|  x2
D|--------------------------------------------------------------------------------------|
A|--------------------------------------------------------------------------------------|
E|--------------------------------------------------------------------------------------|

Guitar 2 

e|----------------------------------------------------------------------------|
B|----------------------------------------------------------------------------|
G|-------------------------------------9-9-9-9-9-9-9--------------------------|
D|-6-6-6-6-6-6-7-7-7-7-7-7-7-7-7-7-7-7-9-9-9-9-9-9-9-6-6-6-6-6-6-6-6-6-6-6-6--|  x2
A|-6-6-6-6-6-6-7-7-7-7-7-7-7-7-7-7-7-7-7-7-7-7-7-7-7-6-6-6-6-6-6-6-6-6-6-6-6--|
E|-4-4-4-4-4-4-5-5-5-5-5-5-5-5-5-5-5-5---------------4-4-4-4-4-4-4-4-4-4-4-4--|
PM...........................................................................


Guitar 1 

e|---------------------------------------------------------------------------------|
B|---------------------------------------------------------------------------------|
G|-----8-9-8---------8-9-8--------8-9-8--------8-9-8--------8-9-8--------8-9-8-----| x2
D|-7-9-------9---6-9-------9---6-9------9---6-9------9---7-9------9---7-9------9---|
A|---------------------------------------------------------------------------------|
E|---------------------------------------------------------------------------------|

Guitar 2 

e|-----------------------------------------------------------------------|
B|-----------------------------------------------------------------------|
G|-------------6-6-6-6-6-6-6-6-6-6-6---4-4-4-4-4-4-----------------------|
D|-7-7-7-7-7-7-6-6-6-6-6-6-6-6-6-6-6---4-4-4-4-4-4-7-7-7-7-7-7-7-7-7-7-7-|   x2
A|-7-7-7-7-7-7-4-4-4-4-4-4-4-4-4-4-4-0-2-2-2-2-2-2-7-7-7-7-7-7-7-7-7-7-7-|
E|-5-5-5-5-5-5-------------------------------------5-5-5-5-5-5-5-5-5-5-5-|
PM .......................................................................



Guitar 1 (I think, sounds good if not) 

e|-------------------------------------------------------------------------------------|
B|-------------------------------------------------------------------------------------|
G|-8--------9-------------------------8--9-8-9-8--------8-------9----------------------|
D|----9--7---------------------------------------11-9-----9--7---------9-9-7-6---------|
A|-6--------7-------------------------------------------6-------7---------------7\6----|
E|----7--5----------4-5-7---0--2-4------------------------7--5-------------------------|

Guitar 2 

e|------------------------------------------------------------------|
B|------------------------------------------------------------------|
G|------------------9--9------------------------------9--9----------|
D|-6--6---7~--------9--9---6~--------6--6---7~--------9--9---6~-----|
A|-6--6---7~--------7--7---6~--------6--6---7~--------7--7---6~-----|
E|-4--4---5~--------0--0---4~--------4--4---5~--------0--0---4~-----|


Guitar 2 

e|-5-5---4-4----4-4-4-4-----------------------|
B|-5-5---5-5----5-5-5-5---7-7-7-7-7--7-7-7-7--|
G|-6-6---6-6----6-6-6-6---9-9-9-8-8--8-8-8-8--|
D|-7-7---6-6----6-6-6-6---9-9-9-9-9--9-9-9-9--| 4x
A|-7-7---4-4----4-4-4-4---9-9-9-9-9--9-9-9-9--|
E|-5-5--------------------7-7-7-7-7--7-7-7-7--|

Guitar 1. Solo comes in on the third repeat.

e|---------------------------------------------------------------------------------------------|
B|---------------------------------------------------------------------------------------------|
G|-----14.-13~--13-14-13--------------------------------------14.-13~-13-14-13---------16.-16~-|
D|--14~------------------14-14/16~--14-13~--13-14-13--------------------------14-14/16~--------|
A|---------------------------------------------------14-14/16~---------------------------------|
E|---------------------------------------------------------------------------------------------|



Guitar 1 

e|------------0-0------------0----------0----0------------0----0-----0----0----0----0---0------|
B|----17------------14----14---14----14---14---14-16-12-----12\---10---10---10---10--10--10----|
G|-14----14-16---13----13---------13--------------------13-------------------------------------|
D|---------------------------------------------------------------------------------------------|
A|---------------------------------------------------------------------------------------------|    
E|---------------------------------------------------------------------------------------------|     }x3

e|---------------------------0------0--0--------------0-----0----0-----0----0----0----0--------|
B|----17------17------14---14-14--14-14-14--16--12------12\---10---10----10---10---10---10-----|
G|-14---14-16---16-13----13-----13-----------------13------------------------------------------|
D|---------------------------------------------------------------------------------------------|
A|---------------------------------------------------------------------------------------------|
E|---------------------------------------------------------------------------------------------|



Guitar 1 

e|---------------------------------------------------------------------------------|
B|---------------------------------------------------------------------------------|
G|-----8-9-8---------8-9-8--------8-9-8--------8-9-8--------8-9-8--------8-9-8-----| x2
D|-7-9-------9---6-9-------9---6-9------9---6-9------9---7-9------9---7-9------9---|
A|---------------------------------------------------------------------------------|
E|---------------------------------------------------------------------------------|

Guitar 2 

e|-------------------------------------------------------------------|
B|-------------------------------------------------------------------|
G|------------6-6-6-6-6-6-6-6-6-6-6-4-4-4-4-4------------------------|
D|-7-7-7-7-7--6-6-6-6-6-6-6-6-6-6-6-4-4-4-4-4--7-7-7-7-7-7-7-7-7-7-7-|   x2
A|-7-7-7-7-7--4-4-4-4-4-4-4-4-4-4-4-2-2-2-2-2--7-7-7-7-7-7-7-7-7-7-7-|
E|-5-5-5-5-5-----------------------------------5-5-5-5-5-5-5-5-5-5-5-|
PM ..................................................................





Guitar 1
                                                On 1,2,3                      On 4
e|----4---------------4----------------------|-----------------------------|---------|
B|---4-4------5-7-5-----5-4-------------4-5-4|--------4-5-4--7-5-4---------|-7-9~~~--|
G|--4---4---6---------------4---------4------|4-----4--------------6-4-----|---------|     x4
D|-6-------7--------7------------------------|-------------------------7---|---------|
A|-------------------------------------------|-----------------------------|---------|
E|----------------------------------0--------|---4-------------------------|---------|

Guitar 2

e|----------------------------------------------------------------------------------------------|
B|---------------------------------------------------------------------------------9--9---9-----|
G|---------------9--9------------------------------9--9---8~--------8--8---9~------8--8---8-----|
D|-6--6---7~-----9--9---6~--------6--6---7~--------9--9---8~--------8--8---9~------6--6---6-----|
A|-6--6---7~-----7--7---6~--------6--6---7~--------7--7---6~--------6--6---7~-------------------|
E|-4--4---5~-----0--0---4~--------4--4---5~--------0--0-----------------------------------------|

e|------------------------------------|
B|-9--9--10---------12--12---12-------|
G|-8--8---9~--------11--11---11~------|
D|-6--6---7~---------9---9----9~------|
A|-----------------------------~------|
E|------------------------------------|


| /  slide up
| \  slide down
| h  hammer-on
| p  pull-off
| ~  vibrato
| +  harmonic
| x  Mute note

            
            
Suggest correction
Creating personal tab
Creating personal tab
You can edit any tab online and save it as your Personal.

You can edit, replace or remove any tab part or add personal notes – all changes will be seen only by you.

Personal tabs can be accessed anytime from any device, even offline.
Learn more »
Give kudos to tab author, rate the tab!
1 2 3 4 5
comments
print report bad tab
guest
You may want to rate the tab now too:
select rating
Wanna post a correction for this tab? Suggest correction