Oops, an error
Loading. Please wait.

Luminol tab

version 1
version 1

Whole song

Interactive

21,577 views 36 this week
8 commentsread comments
1 2 3 4 5
x 8
add to favorites
×
Save as Personal and add changes to this tab that will be seen only by you. Learn more ›
×
You can save this tab as Personal to edit and correct it or add notes. All changes will be seen only by you. Learn more »
launch autoscroll
font size
0
reset
how to read this tab
guitar tuner
edit
Autoscroll
slow
fast
+/-
esc
set tempo
stop
Author
Difficulty
-------------------------------------------------------------------------------
                             Luminol - Steven Wilson
-------------------------------------------------------------------------------
Tabbed by: David Benítez
E-mail: debml700@gmail.com

Tuning: EADGBe

Be sure to post any comments/suggestions and don't forget to rate!
Have fun

Intro
e|----------------------------9---9--9----|
B|-5--------7--------7--------7---7--7----|
G|-4--------6--------6--------7---7--7----| 
D|-x--------x--------x--------0---0--0----|  x2
A|-4--------5--------6--------------------|
E|----------------------------------------|


Solo 1
Behind the solo is a guitar (which is Steven when live) that plays this
e|-+12----------------+7----|
B|-+12------------+7--------|
G|--------------------------|
D|--------------------------|
A|--------------------------|
E|--------------------------|

And the actual solo goes like this... be careful with the ringing notes
e|--12-------------------------(12)-------------------12-----------------(0)----|
B|--12b14------r12------------------12/14---------10----------13-----12-\-7-----|
G|----------------------------------------------------------------11------------|
D|------------------------------------------------------------------------------|
A|------------------------------------------------------------------------------|
E|------------------------------------------------------------------------------|

e|--------------------------------------(14)----|
B|----------------------------------------------|
G|----4b6---r4~--------2------------------------|
D|---------------------2------------------------|
A|----------------------------------------------|
E|----------------------------------------------|


e|----------------------------9---9--9----|
B|-5--------7--------7--------7---7--7----|
G|-4--------6--------6--------7---7--7----| 
D|-x--------x--------x--------0---0--0----|  x2
A|-4--------5--------6--------------------|
E|----------------------------------------|

e|--------------------------------------------------------------------------------|
B|------------------------------------------------------------8-10-12--10-12-14---|
G|--------------------7-9-11--9-11-12------9-11-12--11-12-14----------------------|
D|-9-11-12--11-12-14--------------------------------------------------------------|
A|--------------------------------------------------------------------------------|
E|--------------------------------------------------------------------------------|



e|----------------------------9---9--9----|
B|-5--------7--------7--------7---7--7----|
G|-4--------6--------6--------7---7--7----| 
D|-x--------x--------x--------0---0--0----|  x4
A|-4--------5--------6--------------------|
E|----------------------------------------|

e|---------------------------------------------|
B|-----------------------------15-14-----------|
G|------------------9-11-12-----------12-11----| 
D|-8-9-11--9-11-12-----------------------------| x6
A|---------------------------------------------|
E|---------------------------------------------|

e|--------------------------------------------------|
B|-----------------------------15-14----------------|
G|------------------9-11-12----------15-------------|
D|-8-9-11--9-11-12----------------------16-11-12----|
A|--------------------------------------------------|
E|--------------------------------------------------|

e|---------------------------------------------------------|
B|----12--14-15---12-14------------------------------------|
G|-12---------------------15\11---12\9--11-----------------|
D|------------------------------------------12-11-9-9p8----|
A|---------------------------------------------------------|
E|---------------------------------------------------------|


Bridge
The whole clean part (rhythm guitar) is divided into these two sections
e|-----2------2--2------2------------------|
B|-----3------3--3------3---------5-5-5----|
G|-----0------0--0------0-----1/6-6-6-6----|
D|-----2------2--2------2-----2/7-7-7-7----|
A|-----2------2--2------2-----2/7-7-7-7----|
E|-0------------------0----0--0-0-0-0-0----|

The last open E note is only played at the end of each second run
e|---------------------------------------------------------|
B|----5----5------5-----------3----3------3----------------|
G|----4----4------4-4---------2----2------2-2--------------|
D|----6----6------5----5------4----4------3----3-----------|
A|-4-----4---0-3------------2----2---0-1-------------------|
E|--------------------------------------------------(0)----|


And there's a clean lead going on during this part
e|----------------------------------------------------------------------------|
B|---------------------10-12-14--12-14-15--15/17-14---------------------------|
G|-11-12-14--12-14-16-------------------------------14--12-14-11--(9)-(11)----|
D|----------------------------------------------------------------------------|
A|----------------------------------------------------------------------------|
E|----------------------------------------------------------------------------|

e|-----------------------------------|
B|-----------------------------------|
G|-----------------------------------|
D|-(12)------(14)--------------------|
A|------(14)-------(14)-(12)-(10)----|
E|-----------------------------------|

e|-----------------------------------------|
B|-----------12-12\10-10\8----------7------|
G|-11tr12---------------------7-7/9--------|
D|--------------------------9---------9----|
A|-----------------------------------------|
E|-----------------------------------------|

e|--------------------------------------------------------------------------------------|
B|-------------------12-----------------------------------------------------------------|
G|-11tr12---11-12-14----12-11-----14-(16)--14-12-11----------------------7-7/9-10-10----|
D|-----------------------------11-------------------14-12-10-----------9----------------|
A|-----------------------------------------------------------14-12-9--------------------|
E|--------------------------------------------------------------------------------------|

e|-----------------------------------------|
B|----------14p12--------------------------|
G|-------14-------14--12-14-11-------------|
D|----14-----------------------12-12/14----|
A|-14--------------------------------------|
E|-----------------------------------------|

e|------------------------------------------------14-12-12--------------------------------------|
B|-14-14\12------------------------------------------------14-15p14-----------------------------|
G|-----------16\14--14\11--11------------14-11-12-------------------14----16--(16)-(14)-(16)----|
D|----------------------------11------12-------------------------------14-----------------------|
A|-------------------------------14-------------------------------------------------------------|
E|----------------------------------------------------------------------------------------------|

e|----------------------------------|
B|-12p10----------------------------|
G|-------12-11-------11-13-14-------|
D|----------------14----------11----|
A|-------------14-------------------|
E|----------------------------------|

e|------------------------------------------------|
B|------------------------------------------------|
G|----------12--12--------------------------------|
D|-------12--------14-15-12--10-9-----------------|
A|-12-13--------------------------10-9b10r9b10----|
E|------------------------------------------------|

There's actually more lead guitar playing but it's super quiet so I wont bother to tab it :)


You will need an E-Bow (or any sustainer) for this next bit
e|----------------------------------------------------------------------------------|
B|----------------------------------------------------------------------------------|
G|-12---13--15--17----\12--13--15--17----17b18r17---17b18r-16---16b17-15---15b16----|
D|----------------------------------------------------------------------------------|
A|----------------------------------------------------------------------------------|
E|----------------------------------------------------------------------------------|

Not actually sure if it's a guitar (heavily) layered with effects but something plays this
e|-------------|
B|-------------|
G|-3-3-3-3-3---|
D|-3-3-3-3-3---|
A|-1-1-1-1-1---|
E|-------------|

The final solo is still pending...

e|----------------------------9---9--9----|
B|-5--------7--------7--------7---7--7----|
G|-4--------6--------6--------7---7--7----| 
D|-x--------x--------x--------0---0--0----|  x2
A|-4--------5--------6--------------------|
E|----------------------------------------|

e|----------------------------------------------|
B|---------------------------15-14--------------|
G|------------------9-11-12---------12-11-------| x10
D|-8-9-11--9-11-12------------------------------| 
A|----------------------------------------------|
E|----------------------------------------------|

e|--------------------------------------------------|
B|-----------------------------15-14----------------|
G|------------------9-11-12----------15-------------|
D|-8-9-11--9-11-12----------------------16-11-12----|
A|--------------------------------------------------|
E|--------------------------------------------------|

e|-----------------------------------------------------------|
B|----12----14-15---12-14------------------------------------|
G|-12-----------------------15\11---12\9--11-----------------|
D|--------------------------------------------12-11-9-9p8----|
A|-----------------------------------------------------------|
E|-----------------------------------------------------------|

************************************

| /   slide up
| \   slide down
| h   hammer-on
| p   pull-off
| ~   vibrato
| +   harmonic
| x   Mute note
| b   Bend
| pb  Pre-bend
| br  Bend release
| pbr Pre-bend release
| brb Bend release bend

************************************

            
            
Suggest correction
Creating personal tab
Creating personal tab
You can edit any tab online and save it as your Personal.

You can edit, replace or remove any tab part or add personal notes – all changes will be seen only by you.

Personal tabs can be accessed anytime from any device, even offline.
Learn more »
comments
print report bad tab
8 comments total. Showing first comments.
0 reply
bazdesh 137 Apr 30, 2013 04:46 AM

The last chord should in the progression should be

0 reply
ivan_2894 2,621 May 21, 2013 01:29 PM

This is pretty accurate man! The solo tabbing would me awesome! Kudos

0 reply
tobyhoward 10 Jun 08, 2013 12:04 PM

Yet another revision on these 4 chords, which to me sounds good. All these notated low to high:

1. x44454
2. x5467x
3. x6467x
4. xx0779

Cheers
Toby

guest
You may want to rate the tab now too:
select rating
Wanna post a correction for this tab? Suggest correction