Oops, an error
Loading. Please wait.

Permanating solo tab

664 views 18 this week
2 commentsread comments
1 2 3 4 5
x 3
add to favorites
×
Save as Personal and add changes to this tab that will be seen only by you. Learn more ›
×
You can save this tab as Personal to edit and correct it or add notes. All changes will be seen only by you. Learn more »
launch autoscroll
font size
0
reset
how to read this tab
guitar tuner
edit
Autoscroll
slow
fast
+/-
esc
set tempo
stop
-------------------------------------------------------------------------
                              Artist - Steven Wilson
                             ************************
                                Song - Permanating
                               ********************
                            Album - To The Bone (2017)
                           ****************************
                               Tabbed By - Ayreon77
                              **********************
-------------------------------------------------------------------------
Tuning = Standard


--------------------------
01:30
SOLO
*****
e|--brb--br--------|-------------------------------------------------------|
B|-10---10---------|-----------------s----11-------------------------------|
G|----------8~~~~~-|------8~~-10-8-10\12-----12-10~~-8----------8----------|
D|-----------------|-8-10------------------------------10-8--10---10~~~~~~-|
A|-----------------|-------------------------------------------------------|
E|-----------------|-------------------------------------------------------|

                                                                               b
e|---------------------s---|---------br------|---------s---|-------15-|-18-15-18-|
B|-----------8-10-11-11\13-|----13-15---13~~-|-15-16-16\18-|-16-18----|----------|
G|--h---8-10---------------|-15--------------|-------------|----------|----------|
D|-8-10--------------------|-----------------|-------------|----------|----------|
A|-------------------------|-----------------|-------------|----------|----------|
E|-------------------------|-----------------|-------------|----------|----------|


ENJOY..........

            
            
Suggest correction
Creating personal tab
Creating personal tab
You can edit any tab online and save it as your Personal.

You can edit, replace or remove any tab part or add personal notes – all changes will be seen only by you.

Personal tabs can be accessed anytime from any device, even offline.
Learn more »
Give kudos to tab author, rate the tab!
1 2 3 4 5
comments
print report bad tab
2 comments total.
0 reply
*Stranger* 73 Jul 02, 2017 12:54 PM

Perfect tab

0 reply
ayreon77 21,833 Jul 02, 2017 01:16 PM

thx glad you liked it and thx for the great rate

guest
You may want to rate the tab now too:
select rating
Wanna post a correction for this tab? Suggest correction