Oops, an error
Loading. Please wait.

The Pin Drop tab

version 1
version 1

Whole song

79 views 3 this week
no commentswrite comment
1 2 3 4 5
3 more votes to show rating
add to favorites
×
Save as Personal and add changes to this tab that will be seen only by you. Learn more ›
×
You can save this tab as Personal to edit and correct it or add notes. All changes will be seen only by you. Learn more »
launch autoscroll
font size
0
reset
how to read this tab
guitar tuner
edit
Autoscroll
slow
fast
+/-
esc
set tempo
stop
Artist: Steven Wilson
Song: The Pin Drop
Album: The Raven Who Refused To Sing (And Other Stories) (2013)

Guitar 1 (E A D G B e) - 'Steven Wilson - Acoustic'
Guitar 2 (E A D G B e) - 'Guthrie Govan - Clean'
Guitar 3 (E A D G B e) - 'Steven Wilson - Distortion, Lead'
Guitar 4 (E A D G B e) - 'Guthrie Govan - Distortion'
Guitar 5 (E A D G B e) - 'Steven Wilson - Distortion w/ Heavy Delay'

- When this song is played live, Guitar 1 is playback.
- What is tabbed for Guitar 2 is not entirely accurate. This is an easier version that doesn't
require as much of stretch as what (I think) Guthrie actually plays.

*READ THIS*: In this tab, eighth notes represent eighth note triplets.
This is because this song doesn't feature straight eighth notes (except the solo, 
which I haven't tabbed out yet).

[Intro]
  Gtr 1
   Q     Q     Q     Q        Q     Q     Q     Q        Q     Q     Q     Q        Q     Q     Q     Q
e|--------------------------|--------------------------|--------------------------|--------------------------|
B|-------------1------------|-------------1------------|-------------1------------|-------------1------------|
G|-------0-----------0------|-------0-----------0------|-------0------------0-----|-------0-----------0------|
D|--------------------------|--------------------------|--------------------------|--------------------------|
A|-3------------------------|-3------------------------|-3------------------------|-3------------------------|
E|--------------------------|--------------------------|--------------------------|--------------------------|
 |                          |                          |                          |                          |
 |Gtr 2                     |                          |                          |                          |
 | E+E E E+E E E+E E E+E E  | E+E E E+E E E+E E E+E E  | E+E E E+E E E+E E E+E E  | E+E E E+E E E+E E E+E E  |
e|-3---2-------3---2--------|-3---2-------3---2--------|-3---2-------3---2--------|-3---2-------3---2--------|
B|-------3-----------3------|-------3-----------3------|-------3-----------3------|-------3-----------3------|
G|--------------------------|--------------------------|--------------------------|--------------------------|
D|--------------------------|--------------------------|--------------------------|--------------------------|
A|-----------3-----------3--|-----------3-----------3--|-----------3-----------3--|-----------3-----------3--|
E|--------------------------|--------------------------|--------------------------|--------------------------|
 |                          |                          |                          |                          |
 |Gtr 5                     |                          |                          |                          |
 | W                        |+W                        | W                        |+W                        |
e|-15~----------------------|--------------------------|-14~----------------------|--------------------------|
B|--------------------------|--------------------------|--------------------------|--------------------------|
G|--------------------------|--------------------------|--------------------------|--------------------------|
D|--------------------------|--------------------------|--------------------------|--------------------------|
A|--------------------------|--------------------------|--------------------------|--------------------------|
E|--------------------------|--------------------------|--------------------------|--------------------------|

   Q     Q     Q     Q        Q     Q     Q     Q        Q     Q     Q     Q        Q     Q     Q     Q
e|--------------------------|--------------------------|-------------0------------|--------------------------|
B|-------------4------------|-------------4------------|--------------------------|-------------4------------|
G|-------4-----------4------|-------4-----------4------|-------4-----------4------|-------4-----------4------|
D|--------------------------|--------------------------|--------------------------|--------------------------|
A|-0------------------------|-0------------------------|-0------------------------|-0------------------------|
E|--------------------------|--------------------------|--------------------------|--------------------------|
 |                          |                          |                          |                          |
 | E+E E E+E E E+E E E+E E  | E+E E E+E E E+E E E+E E  | E+E E E+E E E+E E E+E E  | E+E E E+E E E+E E E+E E  |
e|-0-----------0------------|-0-----------0------------|-0-----------0------------|-0-----------0------------|
B|-----4-----------4--------|-----4-----------4--------|-----4-----------4--------|-----4-----------4--------|
G|-------4-----------4------|-------4-----------4------|-------4-----------4------|-------4-----------4------|
D|--------------------------|--------------------------|--------------------------|--------------------------|
A|-----------0-----------0--|-----------0-----------0--|-----------0-----------0--|-----------0-----------0--|
E|--------------------------|--------------------------|--------------------------|--------------------------|
 |                          |                          |                          |                          |
 | W                        |+W                        | W                        |+W                        |
e|-11~----------------------|--------------------------|-12~----------------------|--------------------------|
B|--------------------------|--------------------------|--------------------------|--------------------------|
G|--------------------------|--------------------------|--------------------------|--------------------------|
D|--------------------------|--------------------------|--------------------------|--------------------------|
A|--------------------------|--------------------------|--------------------------|--------------------------|
E|--------------------------|--------------------------|--------------------------|--------------------------|


[Verse 1]
  Gtr 1
   Q     Q     Q     Q        Q     Q     Q     Q        Q     Q     Q     Q        Q     Q     Q     Q
e|--------------------------|--------------------------|--------------------------|--------------------------|
B|-------------1------------|-------------1------------|-------------1------------|-------------1------------|
G|-------0-----------0------|-------0-----------0------|-------0------------0-----|-------0-----------0------|
D|--------------------------|--------------------------|--------------------------|--------------------------|
A|-3------------------------|-3------------------------|-3------------------------|-3------------------------|
E|--------------------------|--------------------------|--------------------------|--------------------------|
 |                          |                          |                          |                          |
 |Gtr 2                     |                          |                          |                          |
 | E+E E E+E E E+E E E+E E  | E+E E E+E E E+E E E+E E  | E+E E E+E E E+E E E+E E  | E+E E E+E E E+E E E+E E  |
e|-3---2-------3---2--------|-3---2-------3---2--------|-3---2-------3---2--------|-3---2-------3---2--------|
B|-------3-----------3------|-------3-----------3------|-------3-----------3------|-------3-----------3------|
G|--------------------------|--------------------------|--------------------------|--------------------------|
D|--------------------------|--------------------------|--------------------------|--------------------------|
A|-----------3-----------3--|-----------3-----------3--|-----------3-----------3--|-----------3-----------3--|
E|--------------------------|--------------------------|--------------------------|--------------------------|

   Q     Q     Q     Q        Q     Q     Q     Q        Q     Q     Q     Q        Q     Q     Q     Q
e|--------------------------|--------------------------|--------------------------|-------------0------------|
B|-------------2------------|-------------2------------|-------------4------------|--------------------------|
G|-------4-----------4------|-------4-----------4------|-------4-----------4------|-------4-----------4------|
D|--------------------------|--------------------------|--------------------------|--------------------------|
A|-0------------------------|-0------------------------|-0------------------------|-0------------------------|
E|--------------------------|--------------------------|--------------------------|--------------------------|
 |                          |                          |                          |                          |
 | E+E E E+E E E+E E E+E E  | E+E E E+E E E+E E E+E E  | E+E E E+E E E+E E E+E E  | E+E E E+E E E+E E E+E E  |
e|-0-----------0------------|-0-----------0------------|-0-----------0------------|-0-----------0------------|
B|-----4-----------4--------|-----4-----------4--------|-----4-----------4--------|-----4-----------4--------|
G|-------4-----------4------|-------4-----------4------|-------4-----------4------|-------4-----------4------|
D|--------------------------|--------------------------|--------------------------|--------------------------|
A|-----------0-----------0--|-----------0-----------0--|-----------0-----------0--|-----------0-----------0--|
E|--------------------------|--------------------------|--------------------------|--------------------------|

   Q     Q     Q     Q        Q     Q     Q     Q        Q     Q     Q     Q        Q     Q     Q     Q
e|--------------------------|--------------------------|--------------------------|--------------------------|
B|-------------1------------|-------------1------------|-------------1------------|-------------1------------|
G|-------0-----------0------|-------0-----------0------|-------0------------0-----|-------0-----------0------|
D|--------------------------|--------------------------|--------------------------|--------------------------|
A|-3------------------------|-3------------------------|-3------------------------|-3------------------------|
E|--------------------------|--------------------------|--------------------------|--------------------------|
 |                          |                          |                          |                          |
 | E+E E E+E E E+E E E+E E  | E+E E E+E E E+E E E+E E  | E+E E E+E E E+E E E+E E  | E+E E E+E E E+E E E+E E  |
e|-3---2-------3---2--------|-3---2-------3---2--------|-3---2-------3---2--------|-3---2-------3---2--------|
B|-------3-----------3------|-------3-----------3------|-------3-----------3------|-------3-----------3------|
G|--------------------------|--------------------------|--------------------------|--------------------------|
D|--------------------------|--------------------------|--------------------------|--------------------------|
A|-----------3-----------3--|-----------3-----------3--|-----------3-----------3--|-----------3-----------3--|
E|--------------------------|--------------------------|--------------------------|--------------------------|

   Q     Q     Q     Q        Q     Q     Q     Q        Q     Q     Q     Q        Q     Q     Q     Q
e|--------------------------|--------------------------|-------------0------------|--------------------------|
B|-------------4------------|-------------4------------|--------------------------|-------------4------------|
G|-------4-----------4------|-------4-----------4------|-------4-----------4------|-------4-----------4------|
D|--------------------------|--------------------------|--------------------------|--------------------------|
A|-0------------------------|-0------------------------|-0------------------------|-0------------------------|
E|--------------------------|--------------------------|--------------------------|--------------------------|
 |                          |                          |                          |                          |
 | E+E E E+E E E+E E E+E E  | E+E E E+E E E+E E E+E E  | E+E E E+E E E+E E E+E E  | E+E E E+E E E+E E E+E E  |
e|-0-----------0------------|-0-----------0------------|-0-----------0------------|-0-----------0------------|
B|-----4-----------4--------|-----4-----------4--------|-----4-----------4--------|-----4-----------4--------|
G|-------4-----------4------|-------4-----------4------|-------4-----------4------|-------4-----------4------|
D|--------------------------|--------------------------|--------------------------|--------------------------|
A|-----------0-----------0--|-----------0-----------0--|-----------0-----------0--|-----------0-----------0--|
E|--------------------------|--------------------------|--------------------------|--------------------------|

   Q     Q     Q     Q        Q     Q     Q     Q        Q     Q     Q     Q        Q     Q     Q     Q
e|--------------------------|--------------------------|--------------------------|--------------------------|
B|-------------1------------|-------------1------------|-------------1------------|-------------1------------|
G|-------0-----------0------|-------0-----------0------|-------0------------0-----|-------0-----------0------|
D|--------------------------|--------------------------|--------------------------|--------------------------|
A|-3------------------------|-3------------------------|-3------------------------|-3------------------------|
E|--------------------------|--------------------------|--------------------------|--------------------------|
 |                          |                          |                          |                          |
 | E+E E E+E E E+E E E+E E  | E+E E E+E E E+E E E+E E  | E+E E E+E E E+E E E+E E  | E+E E E+E E E+E E E+E E  |
e|-3---2-------3---2--------|-3---2-------3---2--------|-3---2-------3---2--------|-3---2-------3---2--------|
B|-------3-----------3------|-------3-----------3------|-------3-----------3------|-------3-----------3------|
G|--------------------------|--------------------------|--------------------------|--------------------------|
D|--------------------------|--------------------------|--------------------------|--------------------------|
A|-----------3-----------3--|-----------3-----------3--|-----------3-----------3--|-----------3-----------3--|
E|--------------------------|--------------------------|--------------------------|--------------------------|

   Q     Q     Q     Q        Q     Q     Q     Q        Q     Q     Q     Q        Q     Q     Q     Q
e|--------------------------|--------------------------|--------------------------|-------------0------------|
B|-------------2------------|-------------2------------|-------------4------------|--------------------------|
G|-------4-----------4------|-------4-----------4------|-------4-----------4------|-------4-----------4------|
D|--------------------------|--------------------------|--------------------------|--------------------------|
A|-0------------------------|-0------------------------|-0------------------------|-0------------------------|
E|--------------------------|--------------------------|--------------------------|--------------------------|
 |                          |                          |                          |                          |
 | E+E E E+E E E+E E E+E E  | E+E E E+E E E+E E E+E E  | E+E E E+E E E+E E E+E E  | E+E E E+E E E+E E E+E E  |
e|-0-----------0------------|-0-----------0------------|-0-----------0------------|-0-----------0------------|
B|-----4-----------4--------|-----4-----------4--------|-----4-----------4--------|-----4-----------4--------|
G|-------4-----------4------|-------4-----------4------|-------4-----------4------|-------4-----------4------|
D|--------------------------|--------------------------|--------------------------|--------------------------|
A|-----------0-----------0--|-----------0-----------0--|-----------0-----------0--|-----------0-----------0--|
E|--------------------------|--------------------------|--------------------------|--------------------------|

  Gtr 1 & 2
   E+E E E+E E E+E E E+E E    E+E E E+E E E+E E E+E E    E+E E E+E E E+E E E+E E    E+E E E+E E E+E E E+E E   
e|-3---2-------3---2--------|-3---2-------3---2--------|-3---2-------3---2--------|-3---2-------3---2--------|
B|o------3-----------3------|-------3-----------3------|-------3-----------3------|-------3-----------3------|
G|--------------------------|--------------------------|--------------------------|--------------------------|
D|--------------------------|--------------------------|--------------------------|--------------------------|
A|o----------3-----------3--|-----------3-----------3--|-----------3-----------3--|-----------3-----------3--|
E|--------------------------|--------------------------|--------------------------|--------------------------|

                                                                                                          (x2)
   E+E E E+E E E+E E E+E E    E+E E E+E E E+E E E+E E    E+E E E+E E E+E E E+E E    E+E E E+E E E+E E E+E E   
e|-0-----------0------------|-0-----------0------------|-0-----------0------------|-0-----------0------------|
B|-----4-----------4--------|-----4-----------4--------|-----4-----------4--------|-----4-----------4-------o|
G|-------4-----------4------|-------4-----------4------|-------4-----------4------|-------4-----------4------|
D|--------------------------|--------------------------|--------------------------|--------------------------|
A|-----------0-----------0--|-----------0-----------0--|-----------0-----------0--|-----------0-----------0-o|
E|--------------------------|--------------------------|--------------------------|--------------------------|


[Clarinet Solo]
  Gtr 1 & 2
   E+E E E+E E E+E E E+E E    E+E E E+E E E+E E E+E E    E+E E E+E E E+E E E+E E    E+E E E+E E E+E E E+E E   
e|-3---2-------3---2--------|-3---2-------3---2--------|-3---2-------3---2--------|-3---2-------3---2--------|
B|o------3-----------3------|-------3-----------3------|-------3-----------3------|-------3-----------3------|
G|--------------------------|--------------------------|--------------------------|--------------------------|
D|--------------------------|--------------------------|--------------------------|--------------------------|
A|o----------3-----------3--|-----------3-----------3--|-----------3-----------3--|-----------3-----------3--|
E|--------------------------|--------------------------|--------------------------|--------------------------|

                                                                                                          (x2)
   E+E E E+E E E+E E E+E E    E+E E E+E E E+E E E+E E    E+E E E+E E E+E E E+E E    E+E E E+E E E+E E E+E E   
e|-0-----------0------------|-0-----------0------------|-0-----------0------------|-0-----------0------------|
B|-----4-----------4--------|-----4-----------4--------|-----4-----------4--------|-----4-----------4-------o|
G|-------4-----------4------|-------4-----------4------|-------4-----------4------|-------4-----------4------|
D|--------------------------|--------------------------|--------------------------|--------------------------|
A|-----------0-----------0--|-----------0-----------0--|-----------0-----------0--|-----------0-----------0-o|
E|--------------------------|--------------------------|--------------------------|--------------------------|


[Chorus] 
  Gtr 3 - Tremolo Picking
    Q   Q   Q   Q        Q   Q   Q   Q        Q   Q   Q   Q        Q   Q   Q   Q     (x2)
e|--------------------|--------------------|--------------------|--------------------|
B|o-11--12--11--12----|--11--12--11--12----|--10--12--10--12----|--10--12--10--12---o|
G|--x---x---x---x-----|--x---x---x---x-----|--x---x---x---x-----|--x---x---x---x-----|
D|--8---9---8---9-----|--8---9---8---9-----|--7---9---7---9-----|--7---9---7---9-----|
A|o-------------------|--------------------|--------------------|-------------------o|
E|--------------------|--------------------|--------------------|--------------------|
 |                    |                    |                    |                    |
 |Gtr 4 - Let notes ring out               |                    |                    |
 |  Q   Q   Q   Q     |  Q   Q   Q   Q     |  Q   Q   Q   Q     |  Q   Q   Q   Q     |
e|--------------------|--------------------|--------------------|--------------------|
B|o-----0-------0-----|------0-------0-----|------0-------0-----|------0-------0----o|
G|--3-------3---------|--3-------3---------|--2-------2---------|--2-------2---------| [I can't guarantee that
D|--1-------1---------|--1-------1---------|--0-------0---------|--0-------0---------|    this bit is right]
A|o-------------------|--------------------|--------------------|-------------------o|
E|--------------------|--------------------|--------------------|--------------------|

    Q   Q   Q   Q        Q   Q   Q   Q        Q   Q   Q   Q        Q   Q   Q   Q
e|--------------------|--------------------|--------------------|--------------------|
B|--11--12--11--12----|--11--12--11--12----|--10--12--10--12----|--10--12--10--12----|
G|--x---x---x---x-----|--x---x---x---x-----|--x---x---x---x-----|--x---x---x---x-----|
D|--8---9---8---9-----|--8---9---8---9-----|--7---9---7---9-----|--7---9---7---9-----|
A|--------------------|--------------------|--------------------|--------------------|
E|--------------------|--------------------|--------------------|--------------------|
 |                    |                    |                    |                    |
 |Gtr 4 starts tremolo picking             |                    |                    |
 |  W                 |  W                 |  W                 |  W                 |
e|--------------------|--------------------|--------------------|--------------------|
B|--14----------------|--14----------------|--14----------------|--17----------------|
G|--------------------|--------------------|--------------------|--------------------|
D|--------------------|--------------------|--------------------|--------------------|
A|--------------------|--------------------|--------------------|--------------------|
E|--------------------|--------------------|--------------------|--------------------|

    Q   Q   Q   Q        Q   Q   Q   Q        W                   +W
e|--------------------|--------------------|--------------------|--------------------|
B|--10--12--10--12----|--10--12--10--12----|--10----------------|--------------------|
G|--x---x---x---x-----|--x---x---x---x-----|--x-----------------|--------------------|
D|--7---9---7---9-----|--7---9---7---9-----|--7-----------------|--------------------|
A|--------------------|--------------------|--------------------|--------------------|
E|--------------------|--------------------|--------------------|--------------------|
 |                    |                    |                    |                    |
 |  W                 |  W                 |  W                 | +W                 |
e|--------------------|--------------------|--------------------|--------------------|
B|--17b18-------------|--18----------------|--18~---------------|--------------------|
G|--------------------|--------------------|--------------------|--------------------|
D|--------------------|--------------------|--------------------|--------------------|
A|--------------------|--------------------|--------------------|--------------------|
E|--------------------|--------------------|--------------------|--------------------|


[Bridge]
  Gtr 2                                                                                                   
   E E E E E E E E E E E E    E E E E E E E E E E E E    E E E E E E E E E E E E    E E E E E E E E E E E E
e|-3-----2-----3-----2------|-3-----2-----3-----2------|-3-----2-----3-----2------|-3-----2-----3-----2------|
B|o--3-----3-----3-----3----|---3-----3-----3-----3----|---3-----3-----3-----3----|---3-----3-----3-----3----|
G|-----0-----0-----0-----0--|-----0-----0-----0-----0--|-----0-----0-----0-----0--|-----0-----0-----0-----0--|
D|--------------------------|--------------------------|--------------------------|--------------------------|
A|o-------------------------|--------------------------|--------------------------|--------------------------|
E|--------------------------|--------------------------|--------------------------|--------------------------|

                                                                                                          (x3)
   E E E E E E E E E E E E    E E E E E E E E E E E E    E E E E E E E E E E E E    E E E E E E E E E E E E
e|-0-----------0------------|-0-----------0------------|-0-----------0------------|-0-----------0------------|
B|---4---4---4---4---4---4--|---4---4---4---4---4---4--|---4---4---4---4---4---4--|---4---4---4---4---4---4-o|
G|-----4---4-------4---4----|-----4---4-------4---4----|-----4---4-------4---4----|-----4---4-------4---4----|
D|--------------------------|--------------------------|--------------------------|--------------------------|
A|--------------------------|--------------------------|--------------------------|-------------------------o|
E|--------------------------|--------------------------|--------------------------|--------------------------|

   E E E E E E E E E E E E    E E E E E E E E E E E E    E E E E E E E E E E E E    E E E E E E E E E E E E
e|-4-----3-----4-----3------|-4-----3-----4-----3------|-3-----2-----3-----2------|-3-----2-----3-----2------|
B|---4-----4-----4-----4----|---4-----4-----4-----4----|---3-----3-----3-----3----|---3-----3-----3-----3----|
G|-----0-----0-----0-----0--|-----0-----0-----0-----0--|-----0-----0-----0-----0--|-----0-----0-----0-----0--|
D|--------------------------|--------------------------|--------------------------|--------------------------|
A|--------------------------|--------------------------|--------------------------|--------------------------|
E|--------------------------|--------------------------|--------------------------|--------------------------|

   E E E E E E E E E E E E    E E E E E E E E E E E E    E E E E E E E E E E E E    E E E E E E E E E E E E
e|-4-----3-----4-----3------|-4-----3-----4-----3------|-3-----2-----3-----2------|-8-----7-----8-----7------|
B|---4-----4-----4-----4----|---4-----4-----4-----4----|---3-----3-----3-----3----|---8-----8-----8-----8----|
G|-----0-----0-----0-----0--|-----0-----0-----0-----0--|-----0-----0-----0-----0--|-----0-----0-----0-----0--|
D|--------------------------|--------------------------|--------------------------|--------------------------|
A|--------------------------|--------------------------|--------------------------|--------------------------|
E|--------------------------|--------------------------|--------------------------|--------------------------|


[Verse 2]
  Gtr 1 & 2
   E+E E E+E E E+E E E+E E    E+E E E+E E E+E E E+E E    E+E E E+E E E+E E E+E E    E+E E E+E E E+E E E+E E   
e|-3---2-------3---2--------|-3---2-------3---2--------|-3---2-------3---2--------|-3---2-------3---2--------|
B|o------3-----------3------|-------3-----------3------|-------3-----------3------|-------3-----------3------|
G|--------------------------|--------------------------|--------------------------|--------------------------|
D|--------------------------|--------------------------|--------------------------|--------------------------|
A|o----------3-----------3--|-----------3-----------3--|-----------3-----------3--|-----------3-----------3--|
E|--------------------------|--------------------------|--------------------------|--------------------------|

                                                                                                          (x2)
   E+E E E+E E E+E E E+E E    E+E E E+E E E+E E E+E E    E+E E E+E E E+E E E+E E    E+E E E+E E E+E E E+E E   
e|-0-----------0------------|-0-----------0------------|-0-----------0------------|-0-----------0------------|
B|-----4-----------4--------|-----4-----------4--------|-----4-----------4--------|-----4-----------4-------o|
G|-------4-----------4------|-------4-----------4------|-------4-----------4------|-------4-----------4------|
D|--------------------------|--------------------------|--------------------------|--------------------------|
A|-----------0-----------0--|-----------0-----------0--|-----------0-----------0--|-----------0-----------0-o|
E|--------------------------|--------------------------|--------------------------|--------------------------|


[Guitar Solo]
Believe it or not there is no guitar underneith the solo, but what's tabbed above will fit.
I'll try to tab the solo, when I'm capable of playing that well.


[Chorus] 
  Gtr 3 - Tremolo Picking
    Q   Q   Q   Q        Q   Q   Q   Q        Q   Q   Q   Q        Q   Q   Q   Q     (x2)
e|--------------------|--------------------|--------------------|--------------------|
B|o-11--12--11--12----|--11--12--11--12----|--10--12--10--12----|--10--12--10--12---o|
G|--x---x---x---x-----|--x---x---x---x-----|--x---x---x---x-----|--x---x---x---x-----|
D|--8---9---8---9-----|--8---9---8---9-----|--7---9---7---9-----|--7---9---7---9-----|
A|o-------------------|--------------------|--------------------|-------------------o|
E|--------------------|--------------------|--------------------|--------------------|
 |                    |                    |                    |                    |
 |Gtr 4 - Let notes ring out               |                    |                    |
 |  Q   Q   Q   Q     |  Q   Q   Q   Q     |  Q   Q   Q   Q     |  Q   Q   Q   Q     |
e|--------------------|--------------------|--------------------|--------------------|
B|o-----0-------0-----|------0-------0-----|------0-------0-----|------0-------0----o|
G|--3-------3---------|--3-------3---------|--2-------2---------|--2-------2---------| [I can't guarantee that
D|--1-------1---------|--1-------1---------|--0-------0---------|--0-------0---------|    this bit is right]
A|o-------------------|--------------------|--------------------|-------------------o|
E|--------------------|--------------------|--------------------|--------------------|

    Q   Q   Q   Q        Q   Q   Q   Q        Q   Q   Q   Q        Q   Q   Q   Q
e|--------------------|--------------------|--------------------|--------------------|
B|--11--12--11--12----|--11--12--11--12----|--10--12--10--12----|--10--12--10--12----|
G|--x---x---x---x-----|--x---x---x---x-----|--x---x---x---x-----|--x---x---x---x-----|
D|--8---9---8---9-----|--8---9---8---9-----|--7---9---7---9-----|--7---9---7---9-----|
A|--------------------|--------------------|--------------------|--------------------|
E|--------------------|--------------------|--------------------|--------------------|
 |                    |                    |                    |                    |
 |Gtr 4 starts tremolo picking             |                    |                    |
 |  W                 |  W                 |  W                 |  W                 |
e|--------------------|--------------------|--------------------|--------------------|
B|--14----------------|--14----------------|--14----------------|--17----------------|
G|--------------------|--------------------|--------------------|--------------------|
D|--------------------|--------------------|--------------------|--------------------|
A|--------------------|--------------------|--------------------|--------------------|
E|--------------------|--------------------|--------------------|--------------------|

    Q   Q   Q   Q        Q   Q   Q   Q        -
e|--------------------|--------------------|--------------------||
B|--10--12--10--12----|--10--12--10--12----|--10----------------||
G|--x---x---x---x-----|--x---x---x---x-----|--x-----------------||
D|--7---9---7---9-----|--7---9---7---9-----|--7-----------------||
A|--------------------|--------------------|--------------------||
E|--------------------|--------------------|--------------------||
 |                    |                    |                    ||
 |  W                 |  W                 |  -                 ||
e|--------------------|--------------------|--------------------||
B|--17b18-------------|--18----------------|--18~---------------||
G|--------------------|--------------------|--------------------||
D|--------------------|--------------------|--------------------||
A|--------------------|--------------------|--------------------||
E|--------------------|--------------------|--------------------||


************************************

|  ~   Vibrato
|  x   Dead note
|  b   Bend
|  E   Eighth note (triplet)
|  Q   Quarter note
|  H   Half note
|  W   Whole note
|  +   Add note value
|o o|  Reprise

************************************

            
            
Suggest correction
Creating personal tab
Creating personal tab
You can edit any tab online and save it as your Personal.

You can edit, replace or remove any tab part or add personal notes – all changes will be seen only by you.

Personal tabs can be accessed anytime from any device, even offline.
Learn more »
Give kudos to tab author, rate the tab!
1 2 3 4 5
comments
print report bad tab
guest
You may want to rate the tab now too:
select rating
Wanna post a correction for this tab? Suggest correction