Oops, an error
Loading. Please wait.

The Watchmaker Bass Tab

61 views 9 this week
no commentswrite comment
1 2 3 4 5
3 more votes to show rating
add to favorites
launch autoscroll
font size
0
reset
guitar tuner
Autoscroll
slow
fast
+/-
esc
set tempo
stop
Help us to improve Ultimate-Guitar.com Take our survey!
×
Author
Difficulty
intermediate
-------------------------------------------------------------------------------
                             The Watchmaker - Steven Wilson
-------------------------------------------------------------------------------
Tabbed by: David Benitez
E-mail: debml700@gmail.com

Tuning: tabbed for standard 4 string (EADG)...although, 
you do need a 5 string for one note and to play it the “official” way (I’ll point out where that is)


Bass doesn’t start until 2:03
           x4
G||---------||----------------------------|
D||---------||----------------------------|
A||-------3-||-5--6----3------------------|
E||-4--3----||------------------4----3----|


4:30                                                                  x4
G|---------------------------------||-------------------------------------||
D|--------------5-5----------------||---5-----5----------5-5------3p0-3h5-||
A|---------------------------------||------------3h5----------3h5---------||
E|-/15\3-----------------------/15\||3----3-3---------3-------------------||

G|--------8-----------------------------|
D|----8------8---8----7----7---7--------|
A|-6----6------6---5-----5---5----5\----|
E|--------------------------------------|


Guitar solo - 5:05
G|------------------------------------------|----------------------------------------|
D|----5-5----5-------5\17-------15----15h17-|----5-5----5--------5--3-2--------------|
A|-------------3h5--------15h17----17-------|-------------3h5-----------5-3-2--------|
E|-3------3--------3------------------------|-3------3--------3---------------5-3----|

G|------------------------------------|---------------------------------------|
D|----5-5----5--------5-5-----3p0-3h5-|----5-5----5--------5-5-----3p0-3h5----|
A|-------------3h5--------3h5---------|-------------3h5--------3h5------------|
E|-3------3--------3------------------|-3------3--------3---------------------|

G|--------8-----------------------------|
D|----8------8---8----7----7---7--------|
A|-6----6------6---5-----5---5----5\----|
E|--------------------------------------|

G|------------------------------------------|--------------------------------------|
D|----5-5----5-------5\17-------15----15h17-|------5-5----5--------5--3-2-2--------|
A|-------------3h5--------15h17----17-------|---------------3h5-------------5-5----|
E|-3------3--------3------------------------|-3-3------3--------3------------------|

G|-----------------------------------|-----------------------------------|
D|-----------------------------------|-----------------------------------|
A|------------5--------------3p0-----|------------5-----------------3h4/-|
E|-3-3--1--0-----3-3--1--3h5-----3p0-|-3-3--1--0-----3-3--5--6-5-3-------|
{
{************************OR on a 5 string...************************
{
G|-----------------------------------|-----------------------------------|
D|-----------------------------------|-----------------------------------|
A|---------------------------3p0-----|------------------------------3h4/-|
E|-3-3--1--0-----3-3--1--3h5-----3p0-|-3-3--1--0-----3-3--5--6-5-3-------|
B|------------3----------------------|------------3----------------------|

G|--------8-------------------------------|
D|----8------8---8----7----7---7----------|
A|-6----6------6---5-----5---5----5\------|
E|-----------------------------------3----|


7:04
G|----------------------------------------------------------------|
D|----------------------------------------------------------------|
A|-12-------12---12--\11-------11------11-\10-------10------------|
E|-------12-----------------11------11-----------10-----10\--3----|

G|--------/(12)----------15-------------------12------------------15------------|
D|---5----------------15-------15----------12-----12-----------15------15-------|
A|-5------------13----------------13-10--------------10-/13---------------13----|
E|------------------------------------------------------------------------------|

G|----------12-------------------15---15-------------------15-------|
D|-------12-------12----------15---------15\------------------15----|
A|-10----------------10-/13-------------------10/13-----------------|
E|------------------------------------------------------------------|

G|----------14----------------14-----------------15-------|
D|----14-------14-------14-------14-----------------15----|
A|-12----12----------12----12----------13-----------------|
E|----------------12----------------12--------------------|

G|----------14----------------14----------------13----------------13----------|
D|----14-------14-------14-------14-------13-------13-------13-------13-------|
A|-12----12----------12----12----------11----11----------11----11-------------|
E|----------------12----------------12----------------11----------------11----|

G|----------12----------------12-----------|
D|----12-------12-------12-------12--------|
A|-10----10----------10----10--------------|
E|----------------10-----------------10----|

                                                                      x3
G||----------12----------------12---------------7-----------10-7-----||-------|
D||----12-------12-------12-------12--------8-----8-----8--------8\--||-------|
A||-10----10----------10----10------------8---8-------8---8----------||-10----|
E||----------------10----------------10\------------6----------------||-------|
{
{************************OR on a 5 string...************************ (this is the "official" way)
{                                                                             x3
G||----------12----------------12--------------------------------------------||-------|
D||----12-------12-------12-------12-------------12----------------15-12-----||-------|
A||-10----10----------10----10-------------13-------13-------13----------13--||-10----|
E||----------------10----------------10-13----13----------13----13-----------||-------|
G||----------------------------------------------------11--------------------||-------|

With pick
G|------------------------10----10-9-------10--9-7-----------|
D|-------8p7-----------------12------10-12-----------10p8----|
A|-10---------8\-3-------------------------------------------|
E|-----------------------------------------------------------|

G|--------7-------------------------------------------------8p7--------------8----|
D|-7-8-10---10-7-8--7-7/10--7-5--------7---------------8h10-----8h10-------8------|
A|------------------------------------------5/6-----------------------8\-6--------|
E|--------------------------------------------------------------------------------|

G|-10----8----7------8----7------8-10-\15------------------|
D|----12---10---8-10---10---8-10---------------------------|
A|---------------------------------------------6--8\--3----|
E|---------------------------------------------------------|

                    x3
G||------------------||-------------------------------|
D||------------------||-------------------------------|
A||-6-6-66-6-6-6-(0)-||-6-6-6--6-6-6--6-6-6--6-6-6----|
E||------------------||-------------------------------|

G||-------------------------------------------------------------||
D||-------------------------------------------------------------||
A||-6----------------------------3--------2---------------------|| x4
E||----7--3--5-1--------1-------------4--------3---6-------6----||

G|----------------------------------|
D|-8--------------------------------|
A|-6--------------------------------|
E|----7--3--5-1--------1------------|

************************************

| /   slide up
| \   slide down
| h   hammer-on
| p   pull-off
| ~   vibrato
| +   harmonic
| x   Mute note
| b   Bend
| pb  Pre-bend
| br  Bend release
| pbr Pre-bend release
| brb Bend release bend

************************************
Suggest correction
Give kudos to tab author, rate the tab!
1 2 3 4 5
comments
print report bad tab
guest
You may want to rate the tab now too:
select rating
Wanna post a correction for this tab? Suggest correction