Oops, an error
Loading. Please wait.

The Poetry Man tab

version 2
version 2

Whole song

3,898 views 9 this week
1 commentread comment
1 2 3 4 5
3 more votes to show rating
add to favorites
×
Save as Personal and add changes to this tab that will be seen only by you. Learn more ›
×
You can save this tab as Personal to edit and correct it or add notes. All changes will be seen only by you. Learn more »
launch autoscroll
font size
0
reset
how to read this tab
guitar tuner
edit
Autoscroll
slow
fast
+/-
esc
set tempo
stop
Tabbed By: Sander Steenstraten

http://www.stevieann.com/

Artiest: Stevie Ann
Titel: The Poetry Man
Album: Away From Here

Capo: 2nd Fret
Tuning: Standard (E-A-D-G-B-E)



Chords

Intro: 

Gadd9:    3-x-0-2-0-x
Em:       0-2-2-0-0-x
Gmaj7:    2-0-0-2-3-3

Verse:

Gadd9:    3-2-0-2-0-3
Em:       0-2-2-0-0-x
Bb:       X-1-3-3-3-1
Am7:      X-0-2-0-1-0
C         0-3-2-0-1-0
Am:       X-0-2-2-1-0

Chorus:

C         0-3-2-0-1-0
Bm:       X-2-4-4-3-2
B7        X-2-4-2-4-2
Em:       0-2-2-0-0-x
Bb:       X-1-3-3-3-1
G:        3-2-0-0-2-2
Cadd9:    X-3-2-0-3-3
Am7:      X-0-2-0-1-0
A7sus4:   X-0-2-0-3-0
A7sus4/G: 3-0-2-0-3-0





Picking:

Stevie uses basically 3 different picking patterns on 
live performances to pluck the chords. 
The 2nd pattern is the one she uses most. The 1st pattern 
she uses at the start of the verses and choruses. The 3rd 
pattern is used to put some emphasis on a chord. Try to variate
and make it your own.


(example for Em)
e|-----x----|      e|-----x----|      e|-----x----|
B|---0-x-0--|      B|-----x-0--|      B|---0-x-0--|
G|---0-x-0--|  or  G|-----x-0--|  or  G|---0-x-0--|
D|-2-2-x-2--|      D|-2---x-2--|      D|-2-2-x-2--|
A|-----x----|      A|-----x----|      A|-----x----|
E|---0-x-0--|      E|---0-x-0--|      E|--0--x-0--|





Intro:

   Gadd9              Em                   Gadd9
e|-----x--------x---------x---------x----------x----------x------|
B|---0-x-0----0-x-0-----0-x-0-----0-x-0------0-x-3------0-x-3----|
G|---2-x-2----2-x-2-----0-x-0-----0-x-0------2-x-2------2-x-2----|
D|---0-x-0--0-0-x-0---2-2-x-2---2-2-x-2----0-0-x-0----0-0-x-0----|
A|-----x--------x---------x---------x----------x----------x------|
E|---3-x-3----3-x-3-----0-x-0-----0-x-0------3-x-3------3-x-3----|


   Em             Gmaj7
e|-----x--------x------------------------------------------------|
B|---0-x------0-x-3----------------------------------------------|
G|---0-x------0-x-2----------------------------------------------|
D|-2-2-x----2---x-0----------------------------------------------|
A|-----x--------x------------------------------------------------|
E|---0-x--0-----x-3----------------------------------------------|





Verse 1:

   Gadd9              Em                   Bb
e|-----x--------x---------x---------x----------x----------x------|
G|---0-x-0------x-0-------x-0-------x-0--------x-3--------x-3----|
B|---2-x-2------x-2-------x-0-------x-0--------x-3--------x-3----|
D|-0-0-x-0--0---x-0---2---x-2---2---x-2----3---x-3----3---x-3----|
A|-----x--------x---------x---------x--------1-x-1------1-x-1----|
E|---3-x-3----3-x-3-----0-x-0-----0-x-0--------x----------x------|


‘I haven’t been hungry for days, bet you can tell by the look......

   Bb       Am7
e|-----x--------x------------------------------------------------|
B|-----x-3----1-x-----1------------------------------------------|
G|-----x-3----0-x-----0------------------------------------------|
D|-3---x-3----2—x---2--------------------------------------------|
A|---1-x-1--0---x-0----------------------------------------------|
E|-----x--------x------------------------------------------------|

   Gadd9              Em                   C
e|-----x--------x---------x---------x----------x----------x------|
B|---0-x-0------x-0-------x-0-------x-0--------x-1--------x-1----|
G|---2-x-2------x-2-------x-0-------x-0--------x-0--------x-0----|
D|-0-0-x-0--0---x-0---2---x-2---2---x-2----2---x-2----2---x-2----|
A|-----x--------x---------x---------x--------3-x-3------3-x-3----|
E|---3-x-3----3-x-3-----0-x-0-----0-x-0--------x----------x------|

I’m dreaming over and over again, I know exactly where I wanna land....

   Am        Gmaj7
e|-----x---------x-----------------------------------------------|
B|-----x-1-----0-x-3---------------------------------------------|
G|-----x-2-----2-x-2---------------------------------------------|
D|-2---x-2---0-0-x-0---------------------------------------------|
A|---0-x-0-------x-----------------------------------------------|
E|-----x-------3-x-3---------------------------------------------|





Chorus:

   C           Bm           B7        Em         Bb
e|-----x-----------x----------x-----------x----------x-----------|
B|-----x-1---------x-3------4-x-4---------x-0--------x-3---------|
G|-----x-0---------x-4------2-x-2---------x-0--------x-3---------|
D|-2---x-2-----4---x-4----4-4-x-4-----2---x-2----3---x-3---------|
A|---3-x-3-------2-x-2------2-x-2---------x--------1-x-1---------|
E|-----x-----------x----------x---------0-x-0--------x-----------|

Oh no, I don’t exactly remember, how and what when wrong, but what I

   C           G                      Cadd9       Bm         
e|-----x-----------x-----------x----------x-3---------x----------|
B|-----x-1---------x-0-------0-x-0--------x-3---------x-3--------|
G|-----x-0---------x-0-------0-x-0----0---x-0---------x-4--------|
D|-2---x-2-----2---x-2---2---2-x-2--------x-------4---x-4--------|
A|---3-x-3---------x-----------x--------3-x-3-------2-x-2--------|
E|-----x---------3-x-3-----3---x-3--------x-----------x----------|

                                  And I’ll be there happy after after...

   B7           Em         Bb        C             G      
e|-----x------------x----------x-----------x-----------x---------|
B|-----x-4----------x-0--------x-3-------1-x-1-1-----0-x-0-------|
G|-----x-2----------x-0--------x-3-------0-x-0-0-----0-x-0-------|
D|-4---x-4------2---x-2----3---x-3---2---2-x-2-2---2-2-x-2-------|
A|---2-x-2----------x--------1-x-1-----3---x-----------x---------|
E|-----x----------0-x-0--------x-----------x---------3-x-3-------|

   Am7   A7sus4 (strum)
e|-----x-0-------------------------------------------------------|
B|---1-x-3-------------------------------------------------------|
G|---0-x-0-------------------------------------------------------|
D|-2-2-x-2-------------------------------------------------------|
A|---0-x-0-------------------------------------------------------|
E|-----x---------------------------------------------------------|





Verse 2:

   Gadd9              Em                   Bb
e|-----x--------x---------x---------x----------x----------x------|
G|---0-x-0------x-0-------x-0-------x-0--------x-3--------x-3----|
B|---2-x-2------x-2-------x-0-------x-0--------x-3--------x-3----|
D|-0-0-x-0--0---x-0---2---x-2---2---x-2----3---x-3----3---x-3----|
A|-----x--------x---------x---------x--------1-x-1------1-x-1----|
E|---3-x-3----3-x-3-----0-x-0-----0-x-0--------x----------x------|


If I wake up in A fairytale with a lovely.....

   Bb       Am7 (or with a little strum)
e|-----x--------x------------------------------------------------|
B|-----x-3----1-x-----1------------------------------------------|
G|-----x-3----0-x-----0------------------------------------------|
D|-3---x-3----2—x---2--------------------------------------------|
A|---1-x-1--0-0-x-0----------------------------------------------|
E|-----x--------x------------------------------------------------|

   Gadd9              Em                   C
e|-----x--------x---------x---------x----------x----------x------|
B|---0-x-0------x-0-------x-0-------x-0--------x-1--------x-1----|
G|---2-x-2------x-2-------x-0-------x-0--------x-0--------x-0----|
D|-0-0-x-0--0---x-0---2---x-2---2---x-2----2---x-2----2---x-2----|
A|-----x--------x---------x---------x--------3-x-3------3-x-3----|
E|---3-x-3----3-x-3-----0-x-0-----0-x-0--------x----------x------|

The only thing I have to do, is worry about you....

   Am        Gmaj7
e|-----x---------x-----------------------------------------------|
B|-----x-1-----0-x-3---------------------------------------------|
G|-----x-2-----2-x-2---------------------------------------------|
D|-2---x-2---0-0-x-0---------------------------------------------|
A|---0-x-0-------x-----------------------------------------------|
E|-----x-------3-x-3---------------------------------------------|





Chorus:

   C           Bm         B7          Em         Bb
e|-----x-----------x----------x-----------x----------x-----------|
B|-----x-1---------x-3------4-x-4---------x-0--------x-3---------|
G|-----x-0---------x-4------2-x-2---------x-0--------x-3---------|
D|-2---x-2-----4---x-4----4-4-x-4-----2---x-2----3---x-3---------|
A|---3-x-3-------2-x-2------2-x-2---------x--------1-x-1---------|
E|-----x-----------x----------x---------0-x-0--------x-----------|

Oh no, I don’t exactly remember, how and what when wrong, but what I

   C           G                      Cadd9       Bm         
e|-----x-----------x-----------x----------x-2---------x----------|
B|-----x-1---------x-0-------0-x-0--------x-2---------x-3--------|
G|-----x-0---------x-0-------0-x-0----0---x-0---------x-4--------|
D|-2---x-2-----2---x-2---2---2-x-2--------x-------4---x-4--------|
A|---3-x-3---------x-----------x--------3-x-3-------2-x-2--------|
E|-----x---------3-x-3-----3---x----------x-----------x----------|

                                  And I’ll be there happy after after...

   B7           Em         Bb        C             G      
e|-----x------------x----------x-----------x-----------x---------|
B|-----x-4----------x-0--------x-3-------1-x-1-1-----0-x-0-------|
G|-----x-2----------x-0--------x-3-------0-x-0-0-----0-x-0-------|
D|-4---x-4------2---x-2----3---x-3---2---2-x-2-2---2-2-x-2-------|
A|---2-x-2----------x--------1-x-1-----3---x-----------x---------|
E|-----x----------0-x-0--------x-----------x---------3-x-3-------|

   Am7   A7sus4 (strum)
e|-----x-0-------------------------------------------------------|
B|---1-x-3-------------------------------------------------------|
G|---0-x-0-------------------------------------------------------|
D|-2-2-x-2-------------------------------------------------------|
A|---0-x-0-------------------------------------------------------|
E|-----x---------------------------------------------------------|





Bridge:

    B7                Em                       Bb          Am       
e|-----x---------x----------x----------x-----------x-----------x---|
B|-----x-4-----4-x-4--------x-0------0-x-0---------x-3-------1-x-1-|
G|-----x-2-----2-x-2--------x-0------0-x-0---------x-3-------2-x-2-|
D|-4---x-4---4-4-x-4----2---x-2----2-2-x-2-----3---x-3-----2-2-x-2-|
A|---2-x-2----2--x----------x----------x---------1-x-1------0--x-0-|
E|-----x---------x--------0-x-0-----0--x-0---------x-----------x---|

Oh, he makes me feel, like there is a whole lot of space, to feel......

   Am7    A7sus4/G
e|-----------------------------------------------------------------|
B|----1------3-----------------------------------------------------|
G|---0------0------------------------------------------------------|
D|--2------2-------------------------------------------------------|
A|-0---------------------------------------------------------------|
E|--------3--------------------------------------------------------|





Chorus:

   C           Bm         B7          Em         Bb
e|-----x-----------x----------x-----------x----------x-----------|
B|-----x-1---------x-3------4-x-4---------x-0--------x-3---------|
G|-----x-0---------x-4------2-x-2---------x-0--------x-3---------|
D|-2---x-2-----4---x-4----4-4-x-4-----2---x-2----3---x-3---------|
A|---3-x-3-------2-x-2------2-x-2---------x--------1-x-1---------|
E|-----x-----------x----------x---------0-x-0--------x-----------|

Oh no, I don’t exactly remember, how and what when wrong, but what I

   C           G                      Cadd9       Bm         
e|-----x-----------x-----------x----------x-2---------x----------|
B|-----x-1---------x-0-------0-x-0--------x-2---------x-3--------|
G|-----x-0---------x-0-------0-x-0----0---x-0---------x-4--------|
D|-2---x-2-----2---x-2---2---2-x-2--------x-------4---x-4--------|
A|---3-x-3---------x-----------x--------3-x-3-------2-x-2--------|
E|-----x---------3-x-3-----3---x----------x-----------x----------|

                                  And I’ll be there happy after after...

   B7           Em         Bb        C             G      
e|-----x------------x----------x-----------x-----------x---------|
B|-----x-4----------x-0--------x-3-------1-x-1-1-----0-x-0-------|
G|-----x-2----------x-0--------x-3-------0-x-0-0-----0-x-0-------|
D|-4---x-4------2---x-2----3---x-3---2---2-x-2-2---2-2-x-2-------|
A|---2-x-2----------x--------1-x-1-----3---x-----------x---------|
E|-----x----------0-x-0--------x-----------x---------3-x-3-------|

   Am7   A7sus4 (strum)
e|-----x-0-------------------------------------------------------|
B|---1-x-3-------------------------------------------------------|
G|---0-x-0-------------------------------------------------------|
D|-2-2-x-2-------------------------------------------------------|
A|---0-x-0-------------------------------------------------------|
E|-----x---------------------------------------------------------|



| /  slide up
| \  slide down
| h  hammer-on
| p  pull-off
| ~  vibrato
| +  harmonic
| x  Mute note
Suggest correction
Creating personal tab
Creating personal tab
You can edit any tab online and save it as your Personal.

You can edit, replace or remove any tab part or add personal notes – all changes will be seen only by you.

Personal tabs can be accessed anytime from any device, even offline.
Learn more »
Give kudos to tab author, rate the tab!
1 2 3 4 5
comments
print report bad tab
1 comment total.
0 reply
fleur.kelder 10 May 20, 2014 12:27 AM

Could you please work out the tabs for 'leave me standing here' as well?

guest
Wanna post a correction for this tab? Suggest correction