Oops, an error
Loading. Please wait.

Landslide Chords

version 1
version 1

Whole song

  • The Bridge is more acurate and the acoustic picking style requires the D/F#.

Interactive

681,124 views 1,785 this week
7 commentsread comments
1 2 3 4 5
excellent!
x 92
add to favorites
launch autoscroll
font size
0
reset
transpose
0
reset
simplify chords
display chords
guitar tuner
Autoscroll
slow
fast
+/-
esc
set tempo
stop
Help us to improve Ultimate-Guitar.com Take our survey!
×
#----------------------------------PLEASE NOTE---------------------------------#
#This file is the author's own work and represents their interpretation of the #
#song. You may only use this file for private study, scholarship, or research. #
#------------------------------------------------------------------------------##
From: indigo@cats.ucsc.edu (Adam Schneider)

Modified by acontreras@gfs.com (Al Contreras)

LANDSLIDE (Stevie Nicks - Fleetwood Mac)
------------------------
A few notes:

I modified this from the awesome tab originally posted by indigo@cats.ucsc.edu (Adam Schneider)
I fixed a couple of verses where the chord progression was incorrect (probably cut & paste error).
I read a comment in the original post that says that the Solo is incorrect because it is tabbed from the nut
when the rest of the song is tabbed from Capo 3.  So, it would be logical to add 3 to every note in the tab;
but I don't play the solo on my acoustic so I don't know if that is correct or not.

 * Capo 3rd Fret

 * All the chords are one measure in duration, except "Am7 - G/B," which is
one measure _total_.

 * D7/F# is 200212 but is easier to play as 20021x so you don't have to use your thumb.  I find it easiest if
I play it like an Am and move my middle finger to the Low E string in the 2nd Fret.  This works because the
picking pattern won't include the Hi E string anyway.  And, there is a transition from Am to D7/F# when she
sings "Built my life around you" so if you get in the habit of using the Am chord form, it is an easy
transition. (I think the chorus actually sounds better with the Am to D7/F# transition instead of Am7 to D7/F#
but either way sounds great)

Adam's original notes regarding the solor are below:
 * In the guitar solo, "/" is a slide, "=" is a hammer-on or pull-off, and
the marks underneath are for timing.  The timing is pretty accurate.
 * Some of the places in the guitar solo where I put hammer-ons or pull-offs
should probably be bends (e.g., 10=12 should maybe be 10b12).  But I don't
have an electric guitar, so I can't do whole-step bends.
 * I might not have put the solo on the right strings; the _notes_ are
right, but where I notated a 3 on the E-string, it might really be an 8 on
the B string, and so on.  Use whichever fingering works best for you.


[Intro]

  C                G/B              Am7              G/B
E|----------------|----------------|----------------|----------------|
B|------1--------1|------3-------3-|------1-------1-|------3-------3-|
G|--0-------0-----|--0-------0-----|--0-------0-----|--0-------0-----|(repeat)
D|----2-------2---|----0-------0---|----2-------2---|----0-------0---|
A|3-------3-------|2-------2-------|0-------0-------|2-------2-------|
E|----------------|----------------|----------------|----------------|

When you get to the last chord progression before the chorus (and the last chord progression of the solo,
just change the bass note string (played with your thumb) to the Low E string for the D7/F# chord as follows:
  
  D7/F#            D7/F#
E|----------------|----------------|
B|------1-------1-|------1-------1-|
G|--2-------2-----|--2-------2-----|
D|----0-------0---|----0-------0---|
A|----------------|----------------|
E|2-------2-------|2-------2-------|


When picking the Em, Lindsey plays a slight variation of that picking pattern.
He alternates his thumb between the Low E and the A strings.
For the 2nd Em chord, in the 5th note of the picking pattern, he does a hammer-on on the B string.
The pattern looks like this:

  Em               Em
E|----------------|------------------|
B|------0-------0-|------0---------0-|
G|--0-------0-----|--0---------0-----|
D|----2-------2---|----2---------2---|
A|--------2-------|--------0h2-------|
E|0---------------|0-----------------|


[Verse]

C            G/B               Am7   G/B
  I took my love, I took it down
C             G/B                    Am7   G/B
  Climbed a mountain and I turned around
       C         G/B             Am7          G/B
And I saw my reflection in the snow-covered hills
         C           G/B        Am7   Am7 - G/B
Till the landslide brung it down           (Oh,)

    C               G/B         Am7   G/B
Oh, mirror in the sky, what is love?
          C              G/B         Am7    G/B
Can the child within my heart rise above?
      C                G/B      Am7    G/B
Can I sail through the changin' ocean tides?
      C          G/B      Am7   G/B    C   G/B  Am7  G/B
Can I handle the seasons of my li    -  i  -    fe?
C    G/B     Am7   D7/F#
  Mm hmm hmm hmm


[Chorus]

       G           D7/F#     Em     Em
Well, I've been afraid of changing 'cause I've
  C       G/B         Am   D7/F#
Built my life around you
     G              D7/F#         Em          Em
But time makes you bolder, even children get older
     C           G/B    Am7   Am7 - G/B
And I'm getting older too


[Solo]

  C                G/B              Am7              G/B
E|------------7-10|----------------|--------10=12---|10------7=5-----|
B|--------5/8-----|----------------|----------------|------------8-8-|
G|----------------|----------------|----------------|----------------|
D|----------------|----------------|----------------|----------------|
A|----------------|----------------|----------------|----------------|
E|----------------|----------------|----------------|----------------|
  ^ . ^ . ^ . ^ .  ^ . ^ . ^ . ^ .  ^ . ^ . ^ . ^ .  ^ . ^ . ^ . ^ .

  C                G/B              Am7              G/B
E|----------------|----------------|----------------|----------------|
B|---------8/10-8-|--------0=1=3-3-|----------------|----------------|
G|----------------|----------------|----------------|----------------|
D|----------------|----------------|----------------|----------------|
A|----------------|----------------|----------------|----------------|
E|----------------|----------------|----------------|----------------|
  ^ . ^ . ^ . ^ .  ^ . ^ . ^ . ^ .  ^ . ^ . ^ . ^ .  ^ . ^ . ^ . ^ .

  C                G/B              Am7              G/B
E|------------7-10|----------------|10=12---10------|7-------7=5-----|
B|--------5/8-----|----------------|----------------|------------8---|
G|----------------|----------------|----------------|----------------|
D|----------------|----------------|----------------|----------------|
A|----------------|----------------|----------------|----------------|
E|----------------|----------------|----------------|----------------|
  ^ . ^ . ^ . ^ .  ^ . ^ . ^ . ^ .  ^ . ^ . ^ . ^ .  ^ . ^ . ^ . ^ .

  C                G/B              Am7              D7/F#
E|------------8---|7---------------|--3-2-3-5-3-2-3-|2-0-2-0---------|
B|-/5-------8-----|--8---------0-1-|3---------------|--------3-1-3---|
G|----------------|----7-----------|----------------|----------------|
D|----------------|----------------|----------------|----------------|
A|----------------|----------------|----------------|----------------|
E|----------------|----------------|----------------|----------------|
  ^ . ^ . ^ . ^ .  ^ . ^ . ^ . ^ .  ^ . ^ . ^ . ^ .  ^ . ^ . ^ . ^ .


[Chorus]

       G           D7/F#     Em     Em
Well, I've been afraid of changing 'cause I've
  C       G/B         Am   D7/F#
Built my life around you
     G              D7/F#         Em          Em
But time makes you bolder, even children get older
     C           G/B    Am7   G/B
And I'm getting older too
     C           G/B    Am7   G/B
Oh, I'm getting older too

       G           G/B      Am7    G/B
Ah-ah, take my love, take it down
  C       G/B         Am7   G/B
Ah-ah, Climb a mountain and turn around
     G              G/B        Am7        G/B
And if you see my reflection in the snow-covered hills
     C           G/B    Am7   G/B
Well, a landslide'll bring it down


[Outro]

            C         G/B             Am7         G/B [pause]
And if you see my reflection in the snow-covered hills
        C            G/B       Am7   G/B
Well, a landslide'll bring it down, oh-ohh
     C           G/B       Am7.
The landslide'll bring it down.
Suggest correction
comments
print report bad tab
7 comments total. Showing first comments.
0 reply
hotshot_666 10 wrote on November 6 2006, 11:51 am

ok tab

+1 reply
inferno420 84 wrote on May 2 2007, 01:02 am

good tab, you forgot to mention that you need a capo on the 3rd fret for this tab.

-1 reply
j3ebrules 72 wrote on March 3 2008, 05:21 pm

yes! you got it.

guest
You may want to rate the tab now too:
select rating
Wanna post a correction for this tab? Suggest correction