Oops, an error
Loading. Please wait.

Soldiers Angel Tab

1,047 views 3 this week
no commentswrite comment
1 2 3 4 5
excellent!
x 9
add to favorites
launch autoscroll
font size
0
reset
how to read this tab
guitar tuner
Tab Pro tools
  • play this tab
  • loop segment
  • change instrument
  • show fretboard
  • metronome
×
Best way to learn
"Soldiers Angel"
Autoscroll
slow
fast
+/-
esc
set tempo
stop
Contributor
Difficulty
novice
SONG:   SOLDIER'S ANGEL
ARTIST: STEVIE NICKS
ALBUM:  IN YOUR DREAMS
TAB BY: DON CZARSKI
EMAIL:  GUITARZAN7@HOTMAIL.COM

              SOLDIER'S ANGEL
               STEVIE NICKS

INTRO:

E ----------------------|
B ----------------------|
G ----------------------|
D --7----7---7---7------|
A ----------------------|
E ----5----5---3----5---|

THEN:

E ---------------------|
B ---------------------|
G ---------------------|
D --7----7---7---7-----|
A ---------------------|
E ----5----5---3----5--|

I am a soldier's angel
Through the eyes of a soldier
Through the eyes of a soldier
I am a soldier's mother

E ---------------------|
B ---------------------|
G ---------------------|
D --7----7---7----7----|
A --------------5------|
E ----5----5--------5--|

Through the eyes of an angel
I am a soldier myself
And no one walks away
From this battle

E ---------------------|
B ---------------------|
G ---------------------|
D --7----7---7---7-----|
A ---------------------|
E ----5----5---3----5--|

I'm a soldier myself
In the presence of angels
I am a soldier's widow
In the background at night

E ---------------------|
B ---------------------|
G ---------------------|
D --7----7---7---7-----|
A ---------------------|
E ----5----5---3----5--|

I am a ghostly shadow
As I follow close behind them
I try to push them gently
Back into the light

CHORUS:
F                G                 Am
I am a soldier's angel four years later
      F                    G       Am
In a war of words between worlds, hmmm
       F            G               Am
About what is wrong, 'bout what is righteous
F                 G   Am
I am a soldier's girl

E ---------------------|
B ---------------------|
G ---------------------|
D --7----7---7---7-----|
A ---------------------|
E ----5----5---3----5--|

I am a soldier's memory
As I write down these words
I try to write their stories
And explain them to the world

E ---------------------|
B ---------------------|
G ---------------------|
D --7----7---7---7-----|
A ---------------------|
E ----5----5---3----5--|

I float through the halls of the hospitals
I am a soldier's nurse
I keep the tears inside
And put them down in verse

CHORUS:
F                G                 Am
I am a soldier's angel four years later
      F                    G       Am
In a war of words between worlds, hmmm
       F            G               Am
About what is wrong, 'bout what is righteous
F                 G   Am
I am a soldier's girl

E ---------------------|
B ---------------------|
G ---------------------|
D --7----7---7---7-----|
A ---------------------|
E ----5----5---3----5--|

I am a soldier's girlfriend
As I look upon their faces
They make me remember my first love
And going out to dances

E ----------------------|
B ----------------------|
G ----------------------|
D --7----7---7----7-----|
A --------------5-------|
E ----5----5---------5--|

They make me remember Camelot
And being young and taking chances
They make me fall in love again
They give me all the answers

CHORUS:
F                G                 Am
I am a soldier's angel four years later
      F                    G       Am
In a war of words between worlds, hmmm
       F            G               Am
About what is wrong, 'bout what is righteous
F                 G   Am
I am a soldier's girl


NOTE:
In this part you can pick as follows the F G and Am chords.
Basically the top 3 strings of them as barre chords.

    F    G    Am
E ----------------|
B ----------------|
G ----------------|
D --3----5----7---|
A --3----5----7---|
E --1----3----5---|

        F
I'm a soldier in their army
               G
They are the soldiers of my heart
  Am
I try to make them smile again
            F
Though it tears me apart

  F
Their bravery leaves me spellbound
   G
I try to be a small part
Am
Bringing them back again
               F
They are the soldiers of my heart

CHORUS:
F                G                 Am
I am a soldier's angel four years later
      F                    G       Am
In a war of words between worlds, hmmm
       F            G               Am
About what is wrong, 'bout what is righteous
F                 G   Am
I am a soldier's girl

        F
I'm a soldier's angel
  G
Through the eyes of a soldier
  Am
Through the eyes of a soldier
        F
I'm a soldier's mother

             F
Through the eyes of an angel
        G
I'm a soldier myself
               Am
No one walks away
            F    G  Am
From this battle
comments
print report bad tab
I want to post or [tab]
guest
You may want to rate the tab now too:
select rating
Please do not post tabs as comments. Select "correction" instead!