Oops, an error
Loading. Please wait.

Stop Draggin My Heart Around Tab

23,271 views 45 this week
2 commentsread comments
1 2 3 4 5
x 11
add to favorites
launch autoscroll
font size
0
reset
how to read this tab
guitar tuner
Autoscroll
slow
fast
+/-
esc
set tempo
stop
Help us to improve Ultimate-Guitar.com Take our survey!
×
STOP DRAGGIN' MY HEART AROUND

by Stevie Nicks w/ Tom Petty

INTRO:

    E       G       A       E       G       A

E---0-------3-------0-------0-------3-------0---------|
B---0-------3-------2-------0-------3-------2---------|
G---1-------0-------2-------1-------0-------2---------|
D---2-------0-------2-------2-------0-------2---------|
A---2-------2-------0-------2-------2-------0---------|
E---0-------3-------X-------0-------3-------X---------|


E---12--------------7-5---5---------------------------|
B-----------------------8---5-------------------------|
G-----------------------------------------------------|
D-----------------------------------------------------|
A-----------------------------------------------------|
E-----------------------------------------------------|


    E       G       A           E       G       A

E---0-------3-------0-----------0-------3-------0-----|
B---0-------3-------2-----------0-------3-------2-----|
G---1-------0-------2-----------1-------0-------2-----|
D---2-------0-------2-----------2-------0-------2-----|
A---2-------2-------0-----------2-------2-------0-----|
E---0-------3-------X-----------0-------3-------X-----|


E-------10~-------------------------10~---------------|
B-----8---------------------------8-------------------|
G---9---------------------------9---------------------|
D-----------------------------------------------------|
A-----------------------------------------------------|
E-----------------------------------------------------|

E                      G             A
Baby you came knockin' on my front door
E                         G      A
Same old line you used to use before
E                            G              A
I said, 'Yeah', well what am I supposed to do?
E                           G      A
I didn't know what I was gettin' into


CHORUS:
C                       D
So you've had a little trouble in town
C                         D
Now you're keepin' some demon down
C                 D
Stop draggin' my, stop draggin' my
C  G  C
Stop draggin' my heart around


2nd Verse (repeat E,G,A progression):

It's hard to think about what you've wanted
It's hard to think about what you've lost
This doesn't have to be the big get even
This doesn't have to be anything at all
I know you really wanna tell me good-bye
I know you really wann be your own girl


CHORUS (repeat 1st chorus chords):

Baby, you could never look me in the eyes
Yeah, you buckle with the weight of the words
Stop draggin' my, stop draggin' my
Stop draggin' my heart around


Interlude:
D,C,G (3X)
A,C,G,C

3rd Verse (repeat E,G,A progression):

Theres' people runnin' round loose in the world
Ain't got nothin' better to do
Than make a meal of some bright-eyed kid
You need someone lookin' after you
I know you really wanna tell me good-bye
I know you really wanna be your own girl

Repeat 2nd CHORUS

 (mailto:choncek@alltel.net)
Suggest correction
comments
print report bad tab
2 comments total.
+1 reply
jr260551 31 Apr 11, 2008 07:52 PM

In the intro the line before the arpeggio is incorrect. It should read:
E---12------------------------------------------------|
B-------------------10b12h---r-10--8--10--------------|
G-------------------------------------9--9------------|
D-----------------------------------------------------|
A-----------------------------------------------------|
E-----------------------------------------------------|

+2 reply
tbone1138 151 Dec 09, 2008 11:42 AM

Should be Em, not E.

guest
You may want to rate the tab now too:
select rating
Wanna post a correction for this tab? Suggest correction