Oops, an error
Loading. Please wait.

Boot Hill Tab

version 1
version 1

Whole song

Interactive

8,194 views 27 this week
no commentswrite comment
1 2 3 4 5
accurate
x 3
add to favorites
launch autoscroll
font size
0
reset
how to read this tab
guitar tuner
Tab Pro tools
  • play this tab
  • loop segment
  • change instrument
  • show fretboard
  • metronome
Autoscroll
slow
fast
+/-
esc
set tempo
stop
Contributor
Stevie Ray Vaughan
Boot Hill

Intro:
eb-10/12-12-12-12-12\------------10/12-12-12-12-10-12-12-10/12-12-12-|
bb-10/12-12-12-12-12\X-X-X-X-X-X-10/12-12-12-12-10-12-12-10/12-12-12-|
gb-------------------X-X-X-X-X-X-------------------------------------|
db-------------------------------------------------------------------|
ab-------------------------------------------------------------------|
eb-------------------------------------------------------------------|
     /\/\/\/\/\/\/\/\/\/\/\/\/\/\/\
eb-12-12-12-12-12-12-12-12-12--12\-------7/8---7------------------|
bb-12-12-12-12-12-12-12-12-12--12\-------7/8---7------------------|
gb--------------------------------------------------0-------------|
db--------------------------------------------------0-------------|
ab------------------------------------------------------------2-4-|
eb------------------------------------------------------2/4-------|

Fig 1
eb-----------------------------------------------------|
bb-----------------------------------------------------|
gb-------------------2-2-4-4-2-2-----------------------|
db-------------------0-0-0-0-0-0------------------2----|
ab-2-2-4-4-2-2-4-4---------------2-2-4-4-2-2-4--2------|
eb-0-0-0-0-0-0-0-0---------------0-0-0-0-0-0-0---------|

Fig 2
eb-------------------0--------------|
bb-----3-3-------------0------------|
gb--2/4-----4-2-1-0-----------------|
db----------------------------------|
ab----------------------------------|
eb--------------------------0-3-4---|

Fig 3
eb-----------------------0------------|
bb------3-3-------------0-------------|
gb--2/4-----4\2---0h1-----------------|
db-------------------------------0----|
ab--------------------------2---------|
eb-----------------------------3---3--|

Fig 4
eb------------0---------|
bb----------------------|
gb-------2-2----2-------|
db----1-----------------|
ab----------------------|
eb--2---------------2---|

Fig 5
eb--------------------------|
bb--------------------------|
gb--------------------------|
db--2-2-4-4-2-2-4-4---------|
ab--0-0-0-0-0-0-0-0--2-2----|
eb---------------------0-0--|

Fig 6
eb------------------------|
bb------------------------|
gb------------------------|
db---------------0-1-2----|
ab------0-1-2-------------|
eb--3---------------------|

Fig 7
eb----------0--------0----|
bb----------------0-------|
gb-------2-----2----------|
db------------------------|
ab------------------------|
eb--2-------------------2-|

Fig 8
eb--0--------------------------|
bb----0---------0----0---------|
gb-------0-1--0---3-----0------|
db-----------------------0-----|
ab-----------------------------|
eb--------------------------2--|

Fig 9
eb----------0-----0---------------|
bb-------------------0------------|
gb-------2-----2--------2---------|
db------------------------------2-|
ab--2-2-------------------------0-|
eb---------------------------3b---|

Fig 10
eb-10/12-12-12-12-12-12-12\0-------|
bb-10/12-12-12-12-12-12-12\0-------|
gb---------------------------------|
db---------------------------------|
ab---------------------------------|
eb---------------------------------|

So here goes the song.......

Intro

Fig 1                                                 Fig 2
Look up at the wall baby, hand me down my shootin iron

Fig 1                                                 Fig 3
Look up at the wall baby, hand me down my shootin iron

Fig 4
Call your mother long distance

Fig 5                                Fig 2 Fig 6
   Tell her to expect your body home

Fig 1                                                    Fig 3
The Senate dont burn you baby, Lord knows the County will

Fig 1                                                Fig 2
Senate dont burn you baby, Lord knows the County will

Fig 7
You made your last mistake

Fig 5                           Fig 2      Fig 6
Your going way on that Boot Hill

Solo:The timing here is not correct, it doesn�t mean that because all
the nots are all together it goes fast....there just wasn�t enough
space.......
eb-10/12-12-12-12--10\0-0-0-0-0-0-0--10/12-12-12-12-12-12-12----------|
bb-10/12-12-12-12--10\0-0-0-0-0-0-0--10/12-12-12-12-12-12-12----------|
gb--------------------------------------------------------------------|
db--------------------------------------------------------------------|
ab--------------------------------------------------------------------|
eb--------------------------------------------------------------------|

eb-10\0-0-0-0-0-10/12-12-12-12-10\0-0-0-0---12--12--12--12--12--12----|
bb-10\0-0-0-0-0-10/12-12-12-12-10\0-0-0-0-10--10--10--10--10--10------|
gb--------------------------------------------------------------------|
db--------------------------------------------------------------------|
ab--------------------------------------------------------------------|
eb--------------------------------------------------------------------|

eb15B-12---------------------10/12--12-12-------------------------12---|
bb------12-11/12-------------10/12--12-12--12\-8/9-----------12-12-----|
gb--------------11/12--9-9\-----------------------12\9-9-9/12----------|
db--------------------------9------------------------------------------|
ab---------------------------------------------------------------------|
eb---------------------------------------------------------------------|

eb0---0-3/5-3B-0--0----0----0----0--3-5-3-5/7--6-5-6-5\3-3--5-3-------|
bb0-0------------0--3/5--3/5--3/5------------------------------5-3-0--|
gb--------------------------------------------------------------------|
db--------------------------------------------------------------------|
ab--------------------------------------------------------------------|
eb--------------------------------------------------------------------|

eb-----------------------------------0------------------------|
bb-0----0-------0----------------------0----------------------|
gb---2/4---2/4-----2/3----2---0h1--------0--------------------|
db----------------------------------2--------------0-1-2------|
ab-------------------------------------------0-1-2------------|
eb-----------------------------------------3------------------|

Fig 1                                                      Fig 10
Dont wanna wax you darlin, cause you gave me my first thrill

Fig 1                                      Some variation Fig 2 Fig 8
Dont wanna wax you darlin, cause you gave me my first thrill

Fig 9
Did me so wrong, your going way on that Boot Hill

eb-10/12-12-12-12-12-12-12\0--14/15--12--10p9p7------------------------|
bb-10/12-12-12-12-12-12-12\0--14/15--12---------9-7--------------------|
gb--------------------------------------------------9/\/\/\/\/\/\/\/\--|
db---------------------------------------------------------------------|
ab---------------------------------------------------------------------|
eb---------------------------------------------------------------------|
comments
We did not receive enough feedback on this tab! Please rate:
print report bad tab
1 2 3 4 5
I want to post or [tab]
guest
You may want to rate the tab now too:
select rating
Please do not post tabs as comments. Select "correction" instead!