Oops, an error
Loading. Please wait.

Change It Bass Tab

version 1
version 1

Whole song

Interactive

4,282 views 3 this week
no commentswrite comment
1 2 3 4 5
please rate
add to favorites
launch autoscroll
font size
0
reset
guitar tuner
Tab Pro tools
  • play this tab
  • loop segment
  • change instrument
  • show fretboard
  • metronome
×
Best way to learn
"Change It"
Autoscroll
slow
fast
+/-
esc
set tempo
stop
Contributor
Difficulty
novice
STEVIE RAY VAUGHAN - Change It
From the 1995 Album GREATEST HITS




Gtr I (Eb Ab Db Gb) - 'Tune Down 1/2 Step'


 intro
  Moderate Rock Shuffle Q=114
 4/4
  Gtr I
                                            |-3-| |-3-|
  H    E E E E    E E E E E E E E   E E E E E E E E E E
|--------------||-----------------|---------------------|
|--------------||-----------------|---------------------|
|--------x-x-x-||-----------------|---------------------|
|--------------||-5-5-5-5-5-5-5-5-|-1-1-1-1-1-1-1-3-3-3-|


                                            Verse
                    |-3-|     |-3-| |-3-|
  E E E E E E E E   E E E E E E E E E E E    E E E E E E E E
|-----------------|-----------------------||-----------------|
|-----------------|-----------------------||-----------------|
|-----------------|-----------------------||-----------------|
|-5-5-5-5-5-5-5-5-|-1-1-1-1-1-1-1-1-3-3-3-||-5-5-5-5-5-5-5-5-|


                                              |-3-|
  E E E E E E E E   E E E E E E E E   E E E E E E E E E
|-----------------|-----------------|--------------------|
|-----------------|-----------------|---------------3-3--|
|-----------------|-----------------|--------------------|
|-1-1-1-1-1-1-1-1-|-5-5-5-5-5-5-5-5-|-1-1-1-1-1-1-1------|


  E E E E E E E E   E E E E E E E E   E E E E E E E E
|-----------------|-----------------|-----------------|
|-----------------|-----------------|-----------------|
|-----------------|-----------------|-----------------|
|-5-5-5-5-5-5-5-5-|-3-3-3-3-3-3-3-3-|-1-1-1-1-1-1-1-1-|


                                          Verse
                    |-3-|         |-3-|
  E E E E E E E E   E E E E E E E E E E    E E E E E E E E
|-----------------|---------------------||-----------------|
|-----------------|---------------5-----||-----------------|
|-----------------|-----------------7---||-----------------|
|-5-5-5-5-5-5-5-5-|-5-5-5-5-5-5-5-----5-||-5-5-5-5-5-5-5-5-|


  E E E E E E E E   E E E E E E E E   E E E E E E E E
|-----------------|-----------------|-----------------|
|-----------------|-----------------|-----------------|
|-----------------|-----------------|-----------------|
|-1-1-1-1-1-1-1-1-|-5-5-5-5-5-5-5-5-|-1-1-1-1-1-1-1-1-|


  E E E E E E E E   E E E E E E E E   E E E E E E E E
|-----------------|-----------------|-----------------|
|-----------------|-----------------|-----------------|
|-----------------|-----------------|-----------------|
|-5-5-5-5-5-5-5-5-|-3-3-3-3-3-3-3-3-|-1-1-1-1-1-1-1-1-|


                    |-3-|         |-3-|
  E E E E E E E E   E E E E E E E E E E    E E E E E E E E
|-----------------|---------------------||-----------------|
|-----------------|---------------5-----||-----------------|
|-----------------|-----------------7---||-3-3-3-3-3-3-3-3-|
|-5-5-5-5-5-5-5-5-|-5-5-5-5-5-5-5-----5-||-----------------|


  E E E E E E E E   E E E E E E E E   E E E E E E E E
|-----------------|-----------------|-----------------|
|-----------------|-----------------|-----------------|
|-3-3-3-3-3-3-3-3-|-1-1-1-1-1-1-1-1-|-1-1-1-1-1-1-1-1-|
|-----------------|-----------------|-----------------|


  E E E E E E E E   E E E E E E E E   E E E E E E E E
|-----------------|-----------------|-----------------|
|-----------------|-----------------|-----------------|
|-----------------|-----------------|-----------------|
|-1-1-1-1-1-1-1-1-|-1-1-1-1-1-1-1-1-|-5-5-5-5-5-5-5-5-|


              |-3-|
  E E E E E E E E E   E E E E E E E E   E E E E E E E E
|-------------------|-----------------|------------------|
|-------------5-----|-----------------|------------------|
|---------------7---|-3-3-3-3-3-3-3-3-|-3-3-3-3-3-3-3----|
|-5-5-5-5-5-5-----5-|-----------------|---------------3--|


  E E E E E E E E   E E E E E E E E   E E E E E E E E
|-----------------|-----------------|-----------------|
|-----------------|-----------------|-----------------|
|-1-1-1-1-1-1-1-1-|-1-1-1-1-1-1-1-1-|-----------------|
|-----------------|-----------------|-1-1-1-1-1-1-1-1-|


                                              |-3-|
  E E E E E E E E   E E E E E E E E   E E E E E E E E E
|-----------------|-----------------|--------------------|
|-----------------|-----------------|--------------------|
|-----------------|-----------------|--------------------|
|-1-1-1-1-1-1-1-1-|-5-5-5-5-5-5-5-5-|-5-5-5-5-5-5-5-5-5--|


                            |-3-|
  E E E E E E E E   E E E E E E E E E   E E E E E E E E
|-----------------|-------------------|------------------|
|-----------------|-----3-3-3-3---3-3-|------------------|
|-----------------|-------------------|------------------|
|-5-5-5-5-5-5-5-5-|-1-1---------1-----|-5-5-5-5-5-5-5-5--|


  E E E E E E E E   E E E E E E E E   E E E E E E E E
|-----------------|-----------------|-----------------|
|-----------------|-----------------|-----------------|
|-----------------|-----------------|-----------------|
|-1-1-1-1-1-1-1-1-|-5-5-5-5-5-5-5-5-|-3-3-3-3-3-3-3-3-|


  |-3-|     |-3-| |-3-|   |-3-|
  E E E E E E E E E E E   E E E E E E E E E   E E E E E E E E
|-----------------------|-------------------|-----------------|
|-----------------------|-------------------|-----------------|
|-----------------------|-------------------|-----------------|
|-5-5-5-5-5-5-5-5-5-5-5-|-5-5-5-5-5-5-5-5-5-|-5-5-5-5-5-5-5-5-|


          |-3-|                                     |-3-|
  E E E E E E E E E   E E E E E E E E   E E E E E E E E E
|-------------------|-----------------|-------------------|
|-----3-3---3---3-3-|-----------------|-------------------|
|-------------------|-----------------|-------------------|
|-1-1-----1---1-----|-5-5-5-5-5-5-5-5-|-1-1-1-1-1-1-1-1-1-|


  E E E E E E E E   E E E E E E E E   E E E E E E E E
|-----------------|-----------------|-----------------|
|-----------------|-----------------|-----------------|
|-----------------|-----------------|-----------------|
|-5-5-5-5-5-5-5-5-|-3-3-3-3-3-3-3-3-|-1-1-1-1-1-1-1-1-|


  E E E E E E E E   E E E E E E E E   E E E E E E E E
|-----------------|-----------------|-----------------|
|-----------------|-----------------|-----------------|
|-----------------|-----------------|-3-3-3-3-3-3-3-3-|
|-5-5-5-5-5-5-5-5-|-5-5-5-5-5-5-5-5-|-----------------|


  E E E E E E E E   E E E E E E E E   E E E E E E E E
|-----------------|-----------------|-----------------|
|-----------------|-----------------|-----------------|
|-3-3-3-3-3-3-3-3-|-1-1-1-1-1-1-1-1-|-1-1-1-1-1-1-1-1-|
|-----------------|-----------------|-----------------|


  E E E E E E E E   E E E E E E E E   E E E E E E E E
|-----------------|-----------------|-----------------|
|-3-3-3-3-3-3-3-3-|-3-3-3-3-3-3-3-3-|-----------------|
|-----------------|-----------------|-----------------|
|-----------------|-----------------|-5-5-5-5-5-5-5-5-|


                    Verse
  E E E E E E E E    E E E E E E E E   E E E E E E E E
|-----------------||-----------------|-----------------|
|-----------------||-----------------|-----------------|
|-----------------||-----------------|-----------------|
|-5-5-5-5-5-0-5-5-||-5-5-5-5-5-5-5-5-|-1-1-1-1-1-1-1-1-|


                            |-3-|
  E E E E E E E E   E E E E E E E E E   E E E E E E E E
|-----------------|-------------------|------------------|
|-----------------|---------------3-3-|------------------|
|-----------------|-------------------|------------------|
|-5-5-5-5-5-5-5-5-|-1-1-1-1-1-1-1-----|-5-5-5-5-5-5-5-5--|


  E E E E E E E E   E E E E E E E E   E E E E E E E E
|-----------------|-----------------|-----------------|
|-----------------|-----------------|-----------------|
|-----------------|-----------------|-----------------|
|-3-3-3-3-3-3-3-3-|-1-1-1-1-1-1-1-1-|-5-5-5-5-5-5-5-5-|


  |-3-|         |-3-|
  E E E E E E E E E E    E E E E E E E E   E E E E E E E E
|---------------------||-----------------|-----------------|
|---------------5-----||-----------------|-----------------|
|-----------------7---||-----------------|-----------------|
|-5-5-5-5-5-5-5-----5-||-5-5-5-5-5-5-5-5-|-1-1-1-1-1-1-1-1-|


                                                  |-3-|
  E E E E E E E E   E E E E E E E E   E E E E E E E E E
|-----------------|-----------------|--------------------|
|-----------------|-----------------|--------------------|
|-----------------|-----------------|--------------------|
|-5-5-5-5-5-5-5-5-|-1-1-1-1-1-1-1-1-|-5-5-5-5-5-5-5-5-5--|


  E E E E E E E E   E E E E E E E E   E E E E E E E E
|-----------------|-----------------|-----------------|
|-----------------|-----------------|-----------------|
|-----------------|-----------------|-----------------|
|-1-1-1-1-1-1-1-1-|-5-5-5-5-5-5-5-5-|-1-1-1-1-1-1-1-1-|


  E E E E E E E E   E E E E E E E E   E E E E E E E E
|-----------------|-----------------|-----------------|
|-----------------|-----3-3---------|-----------------|
|-----------------|-----------------|-----------------|
|-5-5-5-5-5-5-5-5-|-1-1-----1-1-1-1-|-5-5-5-5-5-5-5-5-|


                        |-3-|     |-3-|
  E E E E E E E E   E E E E E E E E E E   E E E E E E E E
|-----------------|---------------------|-----------------|
|-----3-3-----3-3-|---------------------|-----------------|
|-----------------|---------------------|-----------------|
|-1-1-----1-1-----|-5-5-5-5-5-5-5-5-5-5-|-1-1-1-1-1-1-1-1-|


                        |-3-|                       |-3-|
  E E E E E E E E   E E E E E E E E E   E E E E E E E E E
|-----------------|-------------------|-------------------|
|-----------------|-------------------|-------------------|
|-----------------|-------------------|-------------------|
|-5-5-5-5-5-5-5-5-|-1-1-1-1-1-1-1-1-1-|-5-5-5-5-5-5-5-5-5-|


              |-3-|               |-3-|
  E E E E E E E E E   E E E E E E E E E   E E E E E E E E
|-------------------|-------------------|-----------------|
|-------------------|-------------------|-----------------|
|-------------------|-------------------|-----------------|
|-1-1-1-1-1-1-1-1-1-|-5-5-5-5-5-5-5-5-5-|-1-1-1-1-1-1-1-1-|


  |-3-|         |-3-|                                 |-3-|
  E E E E E E E E E E   E E E E E E E E   E E E E E E E E E
|---------------------|-----------------|-------------------|
|---------------------|-----------------|-------------------|
|---------------------|-----------------|-------------------|
|-5-5-5-5-5-5-5-5-5-5-|-1-1-1-1-1-1-1-1-|-5-5-5-5-5-5-5-5-5-|


  E E E E E E E E     E E E E E E E E   E E E E E E E E
|-----------------||------------------|-----------------|
|-----------------||o-----------------|-----------------|
|-----------------||o-----------------|-----------------|
|-1-1-1-1-1-1-1-1-||--5-5-5-5-5-5-5-5-|-1-1-1-1-1-1-1-1-|


  |-3-|     |-3-|
  E E E E E E E E E E   E E E E E E E E  4x E E E E E E E E
|---------------------|------------------||-----------------|
|---------------------|-----------------o||-----------------|
|---------------------|-----------------o||-----------------|
|-5-5-5-5-5-5-5-5-5-5-|-1-1-1-1-1-1-1-1--||-5-5-5-5-5-5-5-5-|


                    |-3-|
  E E E E E E E E   E E E E E E e E e   W          H    +Q   Q
|-----------------|-------------------|----------|---------------*|
|-----------------|-------------------|----------|---------------*|
|-----------------|-------------------|----------|---------------*|
|-3-3-3-3-3-3-3-3-|-1-1-1-1-1-1-1---3-|-5--------|-5----(5)------*|






Duration Legend

W - whole; H - half; Q - quarter; E - 8th; S - 16th; T - 32nd; X - 64th; a - acciaccatura
+ - note tied to previous; . - note dotted; .. - note double dotted
Uncapitalized letters represent notes that are staccato (1/2 duration)
Irregular groupings are notated above the duration line
Duration letters will always appear directly above the note/fret number it represents the
duration for.  Duration letters with no fret number below them represent rests.  Multi-
bar rests are notated in the form Wxn, where n is the number of bars to rest for.  Low
melody durations appear below the staff

comments
We did not receive enough feedback on this tab! Please rate:
print report bad tab
1 2 3 4 5
I want to post or [tab]
guest
You may want to rate the tab now too:
select rating
Please do not post tabs as comments. Select "correction" instead!